top separator

Home

Forum

What's New

Submit a Tab

FAQ

Links

Contact Us

Link to Us

MetalTabs.com logo

Bands

0-9

A

B

C

D

E

F

G

H

I

J

K

L

M

N

O

P

Q

R

S

T

U

V

W

X

Y

Z

Search

What

Where
 

Burzum - "Dominus Sathanas" Guitar Tab

Plain Text Version
More Burzum Tabs

Hits: 8832
Rated: 2.50 out of 5 (16 votes)
Updated: 2001-05-11 19:12:56

 

Important note
This tab is available online because we obtained explicit permission from Burzum or their label.


#----------------------------------PLEASE NOTE---------------------------------#
#This file is the author's own work and represents their interpretation of the #
#song. You may only use this file for private study, scholarship, or research. #
#Unless specified otherwise, this is NOT an official tab from the band members.#
#------------------------------------------------------------------------------#

  Visit MetalTabs.com for more metal tablature
  
Artist: Burzum
Album: Burzum/Aske
Song: Dominus Sathanas

e-mail: seraph_666@hotmail.com

e|----------------------------------|---------------------------------|
B|----------------------------------|---------------------------------|
G|----------------------------------|---------------------------------|
D|-------------------------4-5-4----|-------------------------4-5-4---|
A|---2-3-2-----------2-3-2--------3-|---2-3-2-2---------2-3-2-------3-|
E|-0-------3---3-2-1----------------|-0-------3---3-2-1---------------|

e|--------------------|
B|--------------------|
G|--------------------|
D|--------------------|
A|-2--2--3--2-3-2-0-2-|
E|-0------------------|

  Visit MetalTabs.com for more metal tablature

bottom separator

Contact Us | Privacy Policy | Disclaimer | Legal Notice
Copyright © 2001-2014 MetalTabs.com. All Rights Reserved.