top separator

Home

Forum

FAQ

Contact Us

Link to Us

MetalTabs.com logo

Bands

0-9

A

B

C

D

E

F

G

H

I

J

K

L

M

N

O

P

Q

R

S

T

U

V

W

X

Y

Z

Sepultura - "Itsari" Guitar Tab

Plain Text Version
More Sepultura Tabs

Hits: 5379
Rated: 3.75 out of 5 (8 votes)
Updated: 2001-06-27 13:02:28


#----------------------------------PLEASE NOTE---------------------------------#
#This file is the author's own work and represents their interpretation of the #
#song. You may only use this file for private study, scholarship, or research. #
#Unless specified otherwise, this is NOT an official tab from the band members.#
#------------------------------------------------------------------------------#

  Visit MetalTabs.com for more metal tablature
  
Taken with permission from sepultribe.com

                 ****************************************************************
                 *             Tabbed by Arnar January 3rd ę99                  *
                 *   Comments, corrections and all that shit...arnar@snerpa.is  *
                 ****************************************************************


                                  ITSзRI

For a long time, Ięve been looking for this song or asking people to
tab it for me, (I had tried it myself and it didnęt work out to good)
but no one seemed to know about it or have the time to tab it. So
finally, I gave it all up, and decided to try again. So I took alot of
time trying to figure it out, and here you have the result. Ofcorse, I
canęt be sure if this is right, but it is just made to sound OK. and it
does that. I whould reccomend playing it along with the cd, to get the
feeling for the strumming and all the little pieces witch are played
like Andreas hardly touches the strings.
Ięm also including the solo (witch was a shit to tab but sounds OK)
The bass riff in the solo is kind of strange, like itęs played on
two guitars, but I arranged it for one.
The cords are almost the same as in the strumming part for JASCO.
Ięm not puting the strumming in tablature, so just have to find out
yourself how to strum the song. But donęt hang yourself in how many strings you should strum
in everychord. In the parts of the song wich are played fast and loud, I donęt think it matters
if the base bass notes are the normal D string or the E string (which is dropped to
D, ofcourse)

NOTE: You can ofcourse change the finger positions in the solo, for example:

             Nr. 1                                      Nr. 2
             Eb---------------                          Eb--------2p0-------
             Bb--------7p5----                          Bb------3-----3-----
 This part:  Gb------7-----7--   can become like this:  Gb--1/2-------------
             Db--6h7----------                          Db------------------
             Ab---------------                          Ab------------------
             Db--0------------                          Db--0---------------

A few parts in the solo can be changed like this. It is alot easier and you are alot quicker to
learn the solo. It also depends on the quality of your guitar. If you have a really good
guitar, you can play nr. 1 without having problems getting the notes to sound well, specially
on the "hammer on and off" stuff. I donęt have a good guitar, so I always play version
nr. 2.

But letęs get to the song..here you are, and good luck!


"Dropped D" tuning
Tune down 1/2 step

1:Eb  4:Db
2:Bb  5:Ab
3:Gb  6:Db

Bass riff in the start
Eb-------|
Bb-------|
Gb-------|
Db-----0-|  Repeat and strum D chord a little in the start
Ab-------|
Db-0-----|
Chords in the two cord part: 000232, 000454
Chords in the four chord part: 000232, 000134, 000457, 000578

s—l—:
Eb-------5-4~---5-4h5p4-------------------------------------------------------|
Bb-----7------7---------7------------------------7p5---5-7-5------------------|
Gb-4/5--------------------5-4h5p4--------------7-----7-------7--7-7--7--------|
Db----------0---------------0--------------6h7---------0----------0-----------|
Ab----------------------------------------------------------------------------|
Db-0--------------0------------------------0-----------------0----------------|

Eb-------------------------------------------7--------------------------------------|
Bb--------7p5----9~-7h9p7-----9-10-9h10p9-7~---10-9-7-10-9-7------------------------|
Gb------7-----7----------9-7---------------------------------9-7-5-5h7p5-4-5-4h5p4--|
Db--6h7----------0-----------------0-----------------------0-----------------0------|
Ab----------------------------------------------------------------------------------|
Db--0----------------------0-----------------0---------------------0----------------|

Eb-------2p0----------2p0------|
Bb-----3-----3------3-----3----|
Gb-1/2----------1/2------------|  Repeat
Db--------------0--------------|
Ab-----------------------------|
Db-0---------------------------|

Then itęs just the same chords used trough the song, but
where the time is about 3:33 this chord progress comes: 000232 000134
Just check it out.
The rest should be easy to puzzle together with what you have.

Enjoy
                                                           -Arnar

  Visit MetalTabs.com for more metal tablature

bottom separator

Contact Us | Privacy Policy | Disclaimer
Copyright © 2001-2014 MetalTabs.com. All Rights Reserved.