#----------------------------------PLEASE NOTE---------------------------------#
#This file is the author's own work and represents their interpretation of the #
#song. You may only use this file for private study, scholarship, or research. #
#Unless specified otherwise, this is NOT an official tab from the band members.#
#------------------------------------------------------------------------------#

  Visit MetalTabs.com for more metal tablature
  
			AMORPHIS-Magic and Mayhem

Tune down  1.5

Transcibed by Tuukka Eskola

 INTRO
guitar 1
|----------------------------------------------------|
|----------------------------------------------------|
|----------------------------------7h9-9-9-----------|
|-------------------------9-9-7-9----------7-7-------|
|--7-7--9-10-10-9-9-9-7-7----------------------------|
|----------------------------------------------------|

guitar 2

|-----------------------------------------------|
|-----------------------------------------------|
|-----------------------------------------------|
|-----------------------------------------------|
|-----------------------7-7-7-7-7-7-7-7-7-7-7-7-|
|-2-2-2-2-2-2-2-2-2-2-2-5-5-5-5-5-5-5-5-5-5-5-5-|
|-0-0-0-0-0-0-0-0-0-0-0-------------------------|

guitar 1

|-------------------------------------------------|
|-------------------------------------------------|
|-----------------------------------7h9-9-9-------|
|---------------------------9-9-7-9----------7-7--|
|--7-7--9-10-10-9h10-9-7-7------------------------|
|-------------------------------------------------|
guitar 2

|-----------------------------------------------|
|-----------------------------------------------|
|-----------------------------------------------|
|-----------------------------------------------|
|-----------------------7-7-7-7-7-7-7-7-7-7-7-7\|
|-2-2-2-2-2-2-2-2-2-2-2-5-5-5-5-5-5-5-5-5-5-5-5\|
|-0-0-0-0-0-0-0-0-0-0-0-------------------------|

guitar 1
|-------------------------------------------------|
|-------------------------------------------------|
|-------------------------------------------------|
|-/10-9-9-9-7-5-5-5-4-2-5-4-4-4-4-7-5-4-2-4-/2-2--|
|-------------------------------------------------|
|-------------------------------------------------|

guitar 2

|-----------------------------------------------|
|-----------------------------------------------|
|-----------------------------------------------|
|-----------------------------------------------|
|-----------------------7-7-7-7-7-7-7-7-7-7-7-7-|
|-2-2-2-2-2-2-2-2-2-2-2-5-5-5-5-5-5-5-5-5-5-5-5-|
|-0-0-0-0-0-0-0-0-0-0-0-------------------------|

guitar 1
|-----------------------------|-----------------------------|
|-----------------------------|-----------------------------|
|-----------------------------|-----------------------------|
|------------------4-3-3-3-3--|------------------4-3-3-3-3--|
|--2--2-2-5\4---2--2-1-1-1-1--|--2--2-2-5\4---2--2-1-1-1-1--|
|--0--0-0-3\2-0-0-------------|--0--0-0-3\2-0-0-------------|
  P.M|---|   |-|     |-----|    P.M|---|   |-|       |-----|


guitar 2

|------------------------------|-----------------------------|
|------------------------------|-----------------------------|
|------------------------------|-----------------------------|
|------------------------------|------------------4-3-3-3-3--|
|-2----------------------------|------------------2-1-1-1-1--|
|-0----------------------------|-----------------------------|
 let ring

guitar 2(without P.M)

|-------------------------|
|-------------------------|
|-------------------------|
|---------------4-3-3-3-3-|
|-2-2-2-5\4---2-2-1-1-1-1-|
|-0-0-0-3\2-0-0-----------|

guitar 1(Im not sure about this.Mail your suggestion to me.)
|-----------------------------|
|-----------------------------|
|-----------------------------|

  Visit MetalTabs.com for more metal tablature