top separator

Home

Forum

What's New

Submit a Tab

FAQ

Links

Contact Us

Link to Us

MetalTabs.com logo

Bands

0-9

A

B

C

D

E

F

G

H

I

J

K

L

M

N

O

P

Q

R

S

T

U

V

W

X

Y

Z

Search

What

Where
 

Finntroll - "Trollhammaren" Guitar Tab

Plain Text Version
More Finntroll Tabs

Hits: 1099
Updated: 2011-04-16 03:00:29

 

By:

Laukkubah

sendpm.gif

email.gif

Important note
This tab is available online because we obtained explicit permission from Finntroll or their label.


#----------------------------------PLEASE NOTE---------------------------------#
#This file is the author's own work and represents their interpretation of the #
#song. You may only use this file for private study, scholarship, or research. #
#Unless specified otherwise, this is NOT an official tab from the band members.#
#------------------------------------------------------------------------------#

  Visit MetalTabs.com for more metal tablature
  
Band:  Finntroll
Album: Trollhammaren EP
Song:  Trollhammaren

Copyright (c)  Century Media 2004
Version 1.0 - 2.12.2010

Transcribed By: Lauri Niskanen
Email:          laukkuster@gmail.com
- - - - - - - - - - - - - - - - - - -

Acoustic version

For lute in g', tuning: g'd'afcGF
Guitar: tune to EAdf#be', and you will be able to play from this tab.
Put a capo at the third position, and you will get exactly the same notes.

Recommendation for Intro: play section A without bass notes

A:
                                                                1.       2.
|--------|------0-|--------|--------|--------|--------|--------|--------|------|
|--0-0---|0---0---|3-0-----|--------|--------|----0-3-|--------|--------|----0-|
|------3-|--------|----3-1-|------0-|1-0---0-|1-3-----|3-0---0-|-------*|2----*|
|2-------|--------|0-------|2---2---|2---2---|0-------|0---0---|2------*|-----*|
|----2---|----2---|----0---|----2---|3-------|--------|----0---|----2---|------|
|0-------|0-------|--------|0-------|--------|3-------|--------|0-------|0-----|
                   0                                   0

B:
(Recommendation for section B: mosh)
                                                                1.       2.
|--------|--------|--------|--------|--------|--------|--------|--------|------|
|--0-3-0-|2---0---|--0-3-0-|2---0---|--0-3-0-|2---0---|--------|--------|------|
|1-------|------3-|1-------|------3-|1-------|------3-|--------|----0--*|-----*|
|0-------|2-------|0-------|2-------|0-------|2-------|2-4-2-0-|2------*|2----*|
|--------|--------|--------|--------|--------|--------|--------|--------|2-----|
|--------|--------|--------|--------|--------|--------|0-------|0-------|0-----|

C:

|----0---|----0---|0-------|x2------|0-----0-|--0--0---|0-------|x2------|-----|
|--0---0-|----0---|0---3---|or------|0-----0-|1^0--0---|0---3---|--------|-----|
|--------|--------|----3---something|--------|---------|----3---|--------|-----|
|2-------|2---2---|2---0---|like----|2-----2-|3^2--2---|2---0---|--------|-----|
|--------|--------|--------|that----|--------|---------|--------|--------|-----|
|--------|--------|--------|----and:|--------|---------|--------|--------|-----|

Repeat A and/or B

D:

|--------|--------|--------|--------|--------|----0---|--------|--------|
|--------|----0---|--------|----0---|1-0-----|--1-----|0-----0-|--------|
|1-0-----|--1-----|1-0-----|--1-----|----3-1-|3-------|--1-----|3-----3*|
|----2-0-|2-------|----2-0-|2-------|--------|--------|----0---|--4----*|
|--------|--------|3-------|--------|0-------|--------|--------|----5---|
|0-------|--------|--------|--------|--------|--------|3-------|--------|
                                                                0

Repeat stuff


,,/

  Visit MetalTabs.com for more metal tablature

bottom separator

Contact Us | Privacy Policy | Disclaimer | Legal Notice
Copyright © 2001-2014 MetalTabs.com. All Rights Reserved.