top separator

Home

Forum

What's New

Submit a Tab

FAQ

Links

Contact Us

Link to Us

MuSpy.com

MetalTabs.com logo

Bands

0-9

A

B

C

D

E

F

G

H

I

J

K

L

M

N

O

P

Q

R

S

T

U

V

W

X

Y

Z

Search

What

Where
 

My Dying Bride - "Cry of Mankind" Bass Tab

Plain Text Version
More My Dying Bride Tabs

Hits: 616
Updated: 2011-04-16 03:02:21

 

By:

Paddy

sendpm.gif

email.gif

Important note
This tab is available online because we obtained explicit permission from My Dying Bride or their label.


#----------------------------------PLEASE NOTE---------------------------------#
#This file is the author's own work and represents their interpretation of the #
#song. You may only use this file for private study, scholarship, or research. #
#Unless specified otherwise, this is NOT an official tab from the band members.#
#------------------------------------------------------------------------------#

  Visit MetalTabs.com for more metal tablature
  
================================================================================
                           M Y   D Y I N G   B R I D E

                                        -

                        T H E   C R Y   O F   M A N K I N D
================================================================================


                           THE ANGEL AND THE DARK RIVER
                          (c) Peaceville Records (1995)
                           http://www.mydyingbride.org/


                        Tune Down  1 & 1/2 Steps [5-String]
                                   G# C# F# B E

         Although the song is played on a 5-string no action takes place
               on the B-string, so a standard 4-string will be fine.

                                  Tempo = 52 BPM
                               Time Signature = 4/4



                          -----------------------------
                                  Transcribed by

                                  PADDY MCMULLAN
                            pmtabs (@t) gmail [dot] com

                                   Version 1.0
                                 1st November 2010
                             -----------------------

                             Tablature Symbols Used:



 ( )       -  Ghost Note/Tied Note/Implied Note
 REST      -  Rest and sustain rest for duration of blank space
 |_3_|     -  Triplet Notes
 |__[1,2]  -  Alternative Endings



================================================================================
Intro: Rest for 2 bars before playing the following
================================================================================


||-------------------|-------------------||
||-------------------|-------------------||
||--7----------------|--7----------------||
||--0----------------|--0----------------||
||-------------------|-------------------||



================================================================================
Section 1:
================================================================================


 * Let notes ring wherever possible *


||----------------------------------------| |
||--9----9----9--7--9--9----9----9--7--9--|*|
||--7--7-7--7-7--7-----7--7-7--7-7--7-----| | x 4
||--0--0-0--0-0--0-----0--0-0--0-0--0-----|*|
||----------------------------------------| |


||---------------------|-------------------||
||--9--R--           --|--               --||
||--7--E--           --|--               --||
||--0--S--           --|--               --||
||-----T--           --|--               --||



================================================================================
Section 2:
================================================================================


||-------------------------------------------------------------------| |
||-------------------------------------------------------------------|*|
||----------------------7--------------------------------7-----------| | x 8
||--0---0-0-0--0--0--0--0---0---0---0---0-0-0---0--0--0--0---0---0---|*|
||-------------------------------------------------------------------| |



================================================================================
Section 3:
================================================================================


||------------------------------------------|
||------------------------------------------|
||--------------------------------2--2-2--2-|
||--0--0-0--0-0--0-0--0-0--0-0--0-----------|
||------------------------------------------|


|------------------------------------------| |
|------------------------------------------|*|
|--3--3-3--3-3--3-3--3-2--2-2--2-2--2-2--2-| | x 2
|------------------------------------------|*|
|------------------------------------------| |



================================================================================
Section 4:
================================================================================


||------------------------------------------|
||------------------------------------------|
||------------3--3-3--3-2--2-2--2-2--2-2--2-|
||--0--0-0--0-------------------------------|
||------------------------------------------|

|________________________________________[1]
|----------------------------------------| |
|----------------------------------------|*|
|------------3--3-3--3-------------------| | x 2
|--0--0-0--0-----------2--2-2--2-2--2----|*|
|----------------------------------------| |

|________________________________________[2]
|-----------------------------------------||
|-----------------------------------------||
|------------3--3-3--3--------------------||
|--0--0-0--0-----------2--2-2--2-2--2--0--||
|-----------------------------------------||



================================================================================
Section 5:
================================================================================


||-----------------------------------------|
||--------------9--9--9---5--5--5-5--5--5--|
||------------7---------3------------------|
||--0--0-0--0------------------------------|
||-----------------------------------------|


|-----------------------------------------------|
|--------------9--9--9----12--12--12-12--12-----|
|------------7---------10-----------------------|
|--0--0-0--0---------------------------------0--|
|-----------------------------------------------|


|-----------------------------------------|
|--------------9--9--9---5--5--5-5--5-----|
|------------7---------3---------------3--|
|--0--0-0--0------------------------------|
|-----------------------------------------|

|_________________________________________[1]
|-----------------------------------------| |
|-----------------------------------------|*|
|--2--2-2--2-2--2-2--2-0--0-0--0-0--0-----| | x 2
|--------------------------------------0--|*|
|-----------------------------------------| |

|_______________________________________[2]
|----------------------------------------||
|--7-7--7--7-7--7--7--7-7--7--7-7--7--7--||
|----------------------------------------||
|----------------------------------------||
|----------------------------------------||



================================================================================
Section 6:
================================================================================


||------------------------------------------|
||------------------------------------------|
||--------------------------------2--2-2--2-|
||--0--0-0--0-0--0-0--0-0--0-0--0-----------|
||------------------------------------------|


|------------------------------------------|
|------------------------------------------|
|--3--3-3--3-3--3-3--3-2--2-2--2-2--2-2--2-|
|------------------------------------------|
|------------------------------------------|


|------------------------------------------|
|------------------------------------------|
|--------------------------------2--2-2--2-|
|--0--0-0--0-0--0-0--0-0--0-0--0-----------|
|------------------------------------------|


|-----------------------------------------| |
|-----------------------------------------|*|
|--3--3-3--3-3--3-3--3-5--5-5--5-7--5--7--| |
|-----------------------------------------|*|
|-----------------------------------------| |



================================================================================
Section 7:
================================================================================


||------------------------------------------|
||------------------------------------------|
||--7--7-7--7-7--7-7--7-7--7-7--7-7--7-7--7-|
||------------------------------------------|
||------------------------------------------|


|--------------------------------------------------------| |
|--------------------------------------------------------|*|
|--10--10-10--10-10--10-10--10-12--12-12--12-12--12--12--| | x 2
|--------------------------------------------------------|*|
|--------------------------------------------------------| |


|------------------------------------------|
|------------------------------------------|
|--7--7-7--7-7--7-7--7-7--7-7--7-7--7-7--7-|
|------------------------------------------|
|------------------------------------------|


|-----------------------------------------|
|-----------------------------------------|
|-----------------------------------------|
|--8--8-8--8-8--8-8--8-7--7-7--7-7--7--7--|
|-----------------------------------------|

|------------------------------------------|
|------------------------------------------|
|------------------------------------------|
|--0--0-0--0-0--0-0--0-0--0-0--0-0--0-0--0-|
|------------------------------------------|


|-----------------------------------------||
|-----------------------------------------||
|-----------------------------------------||
|--8--8-8--8-8--8-8--8-7--7-7--7-7--7--7--||
|-----------------------------------------||



================================================================================
Repeat Section 4
================================================================================

================================================================================
Repeat Section 5
================================================================================

================================================================================
Repeat Section 6
================================================================================

================================================================================
Repeat Section 5
================================================================================

================================================================================
Outro:
================================================================================


* Let notes ring wherever possible *


||--9----9----9--7--9--9----9----9--7--9--| |
||--7--7-7--7-7--7-----7--7-7--7-7--7-----|*|
||--0--0-0--0-0--0-----0--0-0--0-0--0-----| |
||----------------------------------------|*|
||----------------------------------------| |



Repeat until fade



================================================================================
End
================================================================================


Tab summary:        Intro x 1
                    Section 1 x 4
                    Section 2 x 8
                    Section 3 x 2
                    Section 4 x 2
                    Section 5 x 2
                    Section 6 x 2
                    Section 7 x 2
                    Section 4 x 2
                    Section 5 x 2
                    Section 6 x 2
                    Section 5 x 2
                    Outro (Repeat indefinitely)

                    END

  Visit MetalTabs.com for more metal tablature

bottom separator

Contact Us | Privacy Policy | Disclaimer | Legal Notice
Copyright © 2001-2014 MetalTabs.com. All Rights Reserved.