top separator

Home

Forum

What's New

Submit a Tab

FAQ

Links

Contact Us

Link to Us

MetalTabs.com logo

Bands

0-9

A

B

C

D

E

F

G

H

I

J

K

L

M

N

O

P

Q

R

S

T

U

V

W

X

Y

Z

Search

What

Where
 

1349 - "Aiwass Aeon" Guitar Tab

Plain Text Version
More 1349 Tabs

Hits: 980
Rated: 5.00 out of 5 (2 votes)
Updated: 2010-10-17 06:17:03

 

By:

codycreepcore

sendpm.gif

email.gif

Important note
This tab is available online because we obtained explicit permission from 1349 or their label.


#----------------------------------PLEASE NOTE---------------------------------#
#This file is the author's own work and represents their interpretation of the #
#song. You may only use this file for private study, scholarship, or research. #
#Unless specified otherwise, this is NOT an official tab from the band members.#
#------------------------------------------------------------------------------#

  Visit MetalTabs.com for more metal tablature
  
Band:  1349
Album: Beyond the Apocalypse
Song:  Aiwass Aeon

Copyright (c)  Candlelight Records 2004
Version 1.0 - 14/10/2010

Transcribed By: troncreepcore
Email:    codycreepcore@gmail.com


Gtr I (E A D G B E) - 'Untitled'

 4/4
  Gtr I
   PM|   PM      PM|   PM      PM|   PM      PM|   PM
   |-----3-----| |-----3-----| |-----3-----| |------3------|
   E E E E  E  E E E E E  E  E E E E E  E  E E E E E S S S S  5x
|-------------------------------------------------------------||----|
|------9---10-11-----9---10-11-----9---10-11-----9-----------o||----|
|------8----9-10-----8----9-10-----8----9-10-----8------------||----|
|------6----7--8-----6----7--8-----6----7--8-----6---7h8p7h8--||----|
|--0-0---0-------0-0---0-------0-0---0-------0-0---0---------o||----|
|-------------------------------------------------------------||----|


  E E E E E E E E E E E E E E E E E E E E    6x
|--------------------------------------------||----|
|-------------------------------------------o||----|
|--------------------------------------------||----|
|-9---9-------6-----------6-----------7------||----|
|---7---7-7-8---8-0-8-7-0---8-0-8-7-0---8---o||----|
|--------------------------------------------||----|


  |-----3-----| |-----3-----|   |-----3-----| |------3------|
  E E E E  E  E E E E E  E  E   E E E E  E  E E E E E S S S S
|-----------------------------|----------------------------------|
|-----9---10-11-----9---10-11-|-----9---10-11-----9--------------|
|-----8----9-10-----8----9-10-|-----8----9-10-----8--------------|
|-----6----7--8-----6----7--8-|-----6----7--8-----6---7h8p7h8----|
|-0-0---0-------0-0---0-------|-0-0---0-------0-0---0------------|
|-----------------------------|----------------------------------|


     PM----------|   PM|   PM|
   S S S S S S S S S S S S S S  S  S    13x
|----------------------------------------||----|
|-10---------------9-----------11-11----o||----|
|--9---------------8-----8-----10-10-----||----|
|--7---------------6-----8------8--8-----||----|
|----0-0-0-0-0-0-0---0-0-6-0-0----------o||----|
|----------------------------------------||----|


          PM----|         PM----|
  S S S S S S S S S S S S S S S S S S S S S S S S S S S S S S S S  6x
|-5-5-5-5---------5-5-5-5---------5-5-5-5--------------------------||---|
|-6-6-6-6---------6-6-6-6---------6-6-6-6-------------------------o||---|
|-7-7-7-7---------7-7-7-7---------7-7-7-7--------------------------||---|
|-7-7-7-7-2-2-2-2-7-7-7-7-2-2-2-2-7-7-7-7-5-5-5-5-6-6-6-6-2-2-2-2--||---|
|-5-5-5-5-2-2-2-2-5-5-5-5-2-2-2-2-5-5-5-5-5-5-5-5-6-6-6-6-2-2-2-2-o||---|
|---------0-0-0-0---------0-0-0-0---------3-3-3-3-4-4-4-4-0-0-0-0--||---|


                                           1.
  |----3-----| |-----3------| |----3-----|   |-3--|  |-3--|  |-3--|
  E  E E E E E E  E E E  E  E E  E E E E E   E  E E  E  E E  E  E E
|------------------------------------------|--------------------------
|------------------------------------------|--------------------------
|----------9-9----------12-12----------9-9-|--------------------------
|---10-9---9-9---10-9---12-12---10-9---9-9-|--------------------------
|---10-9---7-7---10-9---10-10---10-9---7-7-|--------------------------
|-0--8-7-0-----0--8-7-0-------0--8-7-0-----|-11-10-8-11-10-8-11-10-8--


 2.
    |-3-| |-3--|
     E E E E E  E
|-------------------|
|-------------------|
|---------7-9-10----|
|---5-7-8-7-9-10----|
|---5-7-8-5-7--8----|
|---3-5-6-----------|



   E E E E E E E E  E E E  E E E E E
|---------------------------------------|
|-10---------------10-----11------------|
|--9----------------9-----10-----8-8----|
|--7----------------7------8-----8-8----|
|----0-0-0-0-0-0-0----0-0----0-0-6-6----|
|---------------------------------------|

  Visit MetalTabs.com for more metal tablature

bottom separator

Contact Us | Privacy Policy | Disclaimer | Legal Notice
Copyright © 2001-2014 MetalTabs.com. All Rights Reserved.