top separator

Home

Forum

What's New

Submit a Tab

FAQ

Links

Contact Us

Link to Us

MuSpy.com

MetalTabs.com logo

Bands

0-9

A

B

C

D

E

F

G

H

I

J

K

L

M

N

O

P

Q

R

S

T

U

V

W

X

Y

Z

Search

What

Where
 

Sleep - "From Beyond" Bass Tab

Plain Text Version
More Sleep Tabs

Hits: 1911
Updated: 2010-10-17 06:10:51

 

By:

gex_jossh

sendpm.gif

email.gif

Important note
This tab is available online because we obtained explicit permission from Sleep or their label.


#----------------------------------PLEASE NOTE---------------------------------#
#This file is the author's own work and represents their interpretation of the #
#song. You may only use this file for private study, scholarship, or research. #
#Unless specified otherwise, this is NOT an official tab from the band members.#
#------------------------------------------------------------------------------#

  Visit MetalTabs.com for more metal tablature
  
Band: Sleep
Album: Sleepís Holy Mountain
Song:  From Beyond

Copyright (c)  (London/Polygram) (1993)
Version 1.0 - 9/23/2010

Transcribed By: Josh Gardinor
Email:          gex_josh@yahoo.com



.  - palm mute           /  - slide up to
  - slide down to       ~  - vibrato
h  - hammer on           b  - Bend
p  - pull off            Suffixes for bend
t  - tap                 f  - full bend    h - half bend
ph - pinched harmonic    q  - quarter bend t - tap bend
*  - see comment         ^  - Hold bend    r release bend
x  - Stuccatto           ~  - vibrato bend
,  - slight palm mute    () - ghost note, sustained note
"  - tremolo note        <> - Trill

Tuning D G C F

First Riff
|-------------------------------------------------------------------|
|-------------------------5-----------------------------------------|
|---7----7----7--5----------7-----7---7---7--5------5--7------------|
|-0----0----0------7--5---------0---0---0------7--5-----------------|

Second Riff
|-------------------------------------------------------------------|
|-------------------------------------------------------------------|
|--7--7--7-----7--7--7-------7--7--7------7--7--7-------------------|
|-----------6~----------7-6-----------6~-----------7--6-------------|

Third Riff
|-------------------------------------------------------------------|
|o-------------------75-------------------------75-----------------o|
|o--5h77-5h7-5h7-5h77--75-----5h77-5h7-5h7-5h77---75---------------o|
|-------------------------------------------------------------------|

Fourth Riff
|-------------------------------------------------------------------|
|o-----------------------------------------------------------------o|
|o-----------------------------------------------------------------o|
|--0-6-5-3-00-6565-3--0-6-5-3-00-6565-3-----------------------------|

Fifth Riff
|-------------------------------------------------------------------|
|-------------------------------------------------------------------|
|---7-7-5---5---5h7-----7-7-5---5-----------------------------------|
|-00------7---7------00-------7---7-5h7-----------------------------|
Thatís how I play it, sounds fine. Listen to the song for the order of the
riffs, to get it down.

END

  Visit MetalTabs.com for more metal tablature

bottom separator

Contact Us | Privacy Policy | Disclaimer | Legal Notice
Copyright © 2001-2014 MetalTabs.com. All Rights Reserved.