top separator

Home

Forum

What's New

Submit a Tab

FAQ

Links

Contact Us

Link to Us

MetalTabs.com logo

Bands

0-9

A

B

C

D

E

F

G

H

I

J

K

L

M

N

O

P

Q

R

S

T

U

V

W

X

Y

Z

Search

What

Where
 

My Dying Bride - "I Cannot Be Loved" Bass Tab

Plain Text Version
More My Dying Bride Tabs

Hits: 763
Updated: 2010-08-29 14:37:08

 

By:

Paddy

sendpm.gif

email.gif

Important note
This tab is available online because we obtained explicit permission from My Dying Bride or their label.


#----------------------------------PLEASE NOTE---------------------------------#
#This file is the author's own work and represents their interpretation of the #
#song. You may only use this file for private study, scholarship, or research. #
#Unless specified otherwise, this is NOT an official tab from the band members.#
#------------------------------------------------------------------------------#

  Visit MetalTabs.com for more metal tablature
  
================================================================================
                           M Y   D Y I N G   B R I D E

                                        -

                        I   C A N N O T   B E   L O V E D
================================================================================


                            A LINE OF DEATHLESS KINGS
                          (c) Peaceville Records - 2006
                           http://www.mydyingbride.org/


                     Tune Down  1 & 1/2 Steps [5-String Bass]
                                   G# C# F# B E

                                  Tempo = 64 BPM
                               Time Signature = 3/4



                          -----------------------------
                                  Transcribed by

                                  PADDY MCMULLAN
                            pmtabs (@t) gmail [dot] com

                                   Version 1.0
                                 31st July  2010
                             -----------------------

                             Tablature Symbols Used:


 \         -  Slide Down to/Down From
 /         -  Slide Up To/Up From
 ( / )     -  Legato Slide
 ( )       -  Ghost Note/Tied Note/Implied Note
 REST      -  Rest and sustain rest for duration of blank space
 |__[1,2]  -  Alternative Endings



================================================================================
Section 1: Play once
================================================================================


| |------------| |------------R-  -|--     ------------|------------R-  -|
|3|------------|3|------------E-  -|--     ------------|------------E-  -|
|/|------------|/|------------S-  -|--     ------------|--1------1--S-  -|
|8|--6-3--2--3-|4|------------T-  -|--     --6-3--2--3-|------------T-  -|
| |------------| |--0------0-------|-------------------|-----------------|


|--     ------------| |
|--     ------------|*|
|--     ------------| | x 2
|--     --6-3--2--3-|*|
|-------------------| |


||---------------|-------------------|---------------|
||---------------|-------------------|---------------|
||---------------|-------------------|--1------------|
||---------------|---------6-3--2--3-|---------------|
||--0------------|--(0)--------------|---------------|


|-------------------|---------------|-------------------|---------------|
|-------------------|---------------|-------------------|---------------|
|--(1)--------------|---------------|-------------------|---------------|
|---------6-3--2--3-|---------------|---------6-3--2--3-|--0------------|
|-------------------|--0------------|--(0)--------------|---------------|


| |---------| |-------------------|-------------------|-------------------|
|3|---------|4|-------------------|-------------------|-------------------|
|/|---------|/|-------------------|-------------------|-------------------|
|8|--(0)----|4|--0----------------|--(0)--------------|--0----------------|
| |---------| |-------------------|-------------------|-------------------|


|-------------------||
|-------------------||
|-------------------||
|--(0)--------------||
|-------------------||



================================================================================
Section 2: Play once
================================================================================


||-----------------------|-----------------------|-----------------------|
||-----------------------|-----------------------|-----------------------|
||----------3----3--2----|----------3----3--2----|----------3----3--2----|
||--0----3---------------|--0----3---------------|--0----3---------------|
||-----------------------|-----------------------|-----------------------|


|-----------------------|----------------------|----------------------|
|-----------------------|----------------------|----------------------|
|----------3----3--2----|----------3------2----|----------3------2----|
|--0----3---------------|--0----3--------------|--0----3--------------|
|-----------------------|----------------------|----------------------|


|----------------------|------------------------|----------------------|
|----------------------|------------------------|----------------------|
|----------3------2----|----------3------2-3-2--|----------3------2----|
|--0----3--------------|--0----3----------------|--0----3--------------|
|----------------------|------------------------|----------------------|


|----------------------|----------------------|------------------------|||
|----------------------|----------------------|------------------------||
|----------3------2----|----------3------2----|----------3------2-3-2--||
|--0----3--------------|--0----3--------------|--0----3----------------||
|----------------------|----------------------|------------------------||



================================================================================
Section 3: Play twice
================================================================================


||--------------------|--------------------|--------------------|
||--------------------|--------------------|--------------------|
||--------------------|--------------------|--------------------|
||--0------------0----|--------------------|--------------------|
||--------------------|--3------------3----|--1------------1----|


|--------------------| |
|--------------------|*|
|--------------------| | x 2
|--------------------|*|
|--3------------3----| |



================================================================================
Section 4: Play twice [ Tempo = 73 BPM ]
================================================================================


||--------------------------------------|
||--------------------------------------|
||--------------------------------------|
||--0h 7-7-7-7\ 6-6-6-6\ 5-5\ 3-3-4-3-2-|
||--------------------------------------|


|----------------------------------------| |
|----------------------------------------|*|
|----------------------------------------| | x 2
|--0-0-0-12-12-12-11-11-11-7-7-7-6-7-6-5-|*|
|----------------------------------------| |



================================================================================
Repeat the first 4 bars of Section 2 twice [ Tempo = 67 ]
================================================================================

================================================================================
Repeat Section 3
================================================================================

================================================================================
Repeat Section 4 four times [ Tempo = 74 BPM ]
================================================================================

================================================================================
Section 5: Play 4 times
================================================================================


||-----------------------------------------| |
||-----------------------------------------|*|
||--7--7-7-7--7--7\ 6-6\ 2-2-2-2-2-1-2-1-0-| | x 3
||-----------------------------------------|*|
||-----------------------------------------| |


|----------------------------------------| |-----------| |
|----------------------------------------|3|-----------|4|
|--7--7-7-7--7--7\ 6-6\ 2-2-2-2-2-1-2-2--|/|--(2)------|/|
|----------------------------------------|8|-----------|4|
|----------------------------------------| |-----------| |



================================================================================
Section 6: Play 4 times
================================================================================


||-------------------|--------------------| |
||-------------------|--------------------|*|
||-------------------|-----------1--------| | x 4
||--0----------------|--3-----------------|*|
||-------------------|--------------------| |


||--------|----------||
||--------|----------||
||--------|----------||
||--0-----|--(0)-----||
||--------|----------||



================================================================================
Rest for 13 bars
================================================================================

================================================================================
Repeat Section 3
================================================================================

================================================================================
Outro: Play twice
================================================================================


||-------------------|-------------------|-------------------|
||-------------------|-------------------|-------------------|
||-------------------|-------------------|-------------------|
||--0----------------|-------------------|-------------------|
||-------------------|--3----------------|--1----------------|


|-------------------| |
|-------------------|*|
|-------------------| | x 2
|-------------------|*|
|--3----------------| |


|-------------------|-------------------|-------------------|
|-------------------|-------------------|-------------------|
|-------------------|-------------------|-------------------|
|--0----------------|--(0)--------------|--(0)--------------|
|-------------------|-------------------|-------------------|


|-------------------||
|-------------------||
|-------------------||
|--(0)--------------||
|-------------------||



================================================================================
End
================================================================================


Tab summary:        Section 1 x 1
                    Section 2 x 1
                    Section 3 x 2
                    Section 4 x 2
                    Section 2 x 2
                    Section 3 x 2
                    Section 4 x 4
                    Section 5 x 4
                    Section 6 x 4
                    Section 3 x 2
                    Outro x 2

                    END

  Visit MetalTabs.com for more metal tablature

bottom separator

Contact Us | Privacy Policy | Disclaimer | Legal Notice
Copyright © 2001-2014 MetalTabs.com. All Rights Reserved.