top separator

Home

Forum

What's New

Submit a Tab

FAQ

Links

Contact Us

Link to Us

MuSpy.com

MetalTabs.com logo

Bands

0-9

A

B

C

D

E

F

G

H

I

J

K

L

M

N

O

P

Q

R

S

T

U

V

W

X

Y

Z

Search

What

Where
 

My Dying Bride - "L'Amour Detruit" Guitar Tab

Plain Text Version
More My Dying Bride Tabs

Hits: 1369
Rated: 4.50 out of 5 (2 votes)
Updated: 2010-07-25 15:19:59

 

By:

Paddy

sendpm.gif

email.gif

Important note
This tab is available online because we obtained explicit permission from My Dying Bride or their label.


#----------------------------------PLEASE NOTE---------------------------------#
#This file is the author's own work and represents their interpretation of the #
#song. You may only use this file for private study, scholarship, or research. #
#Unless specified otherwise, this is NOT an official tab from the band members.#
#------------------------------------------------------------------------------#

  Visit MetalTabs.com for more metal tablature
  
================================================================================
                           M Y   D Y I N G   B R I D E

                                        -

                          L ' A M O U R   D E T R U I T
================================================================================


                            A LINE OF DEATHLESS KINGS
                          (c) Peaceville Records - 2006
                           http://www.mydyingbride.org/


                             Tune Down  1 & 1/2 Steps
                                 C# F# B E G# C#

                                  Tempo = 96 BPM
                               Time Signature = 4/4



                          -----------------------------
                                  Transcribed by

                                  PADDY MCMULLAN
                            pmtabs (@t) gmail [dot] com

                                   Version 1.0
                                29th December 2009
                             -----------------------

                             Tablature Symbols Used:


 p         -  Pull-Off
 h         -  Hammer-On
 P.M...    -  Palm Mute
 x         -  Muted Note/Dead Note
 \         -  Slide Down to/Down From
 /         -  Slide Up To/Up From
 ( / )     -  Legato Slide
 ( )       -  Ghost Note/Tied Note/Implied Note
 REST      -  Rest and sustain rest for duration of blank space
 |_3_|     -  Triplet Notes
 |__[1,2]  -  Alternative Endings



================================================================================
Section 1.1: Guitar 1 (Play 4 times)
================================================================================


||-------------------------|----------------------------|
||-------------------------|----------------------------|
||-------------------------|----------------------------|
||--------7 h 9--9------7--|--7 h 9--9--- \ 4 h 5--5----|
||-----7-------------------|----------------------------|
||--0----------------------|----------------------------|


|------------------------|----------------------------| |
|------------------------|----------------------------| |
|------------------------|----------------------------|*|
|--(5 /7)--7----------5--|--5 h 7--7---(7/10)--9------|*|
|------------------------|----------------------------| |
|------------------------|----------------------------| |



================================================================================
Section 1.2: Guitar 2 (Play once)
================================================================================


Rest for 5 bars


||-----------------------|----------------------|---------------------|
||--R-      -------------|----------------------|---------------------|
||--E-      -------------|----------------------|---------------------|
||--S-      -------------|----------------------|---------------------|
||--T-      -(4/5)--5----|--(5/7)--7------------|--(7)------3--3------|
||-----------(2/3)--3----|--(3/5)--5------------|--(5)------1--1------|
                                                            P.M.

|-------------------|----------------------|---------------------|
|-------------------|----------------------|---------------------|
|-------------------|----------------------|---------------------|
|-------------------|----------------------|---------------------|
|--2----------------|--(2)------(4/5)------|--(5/7)--------------|
|--0----------------|--(0)------(2/3)------|--(3/5)--------------|


|---------------------|-------------------|----------------------|
|---------------------|-------------------|----------------------|
|---------------------|-------------------|----------------------|
|---------------------|-------------------|----------------------|
|--(7)------3--3------|--2----------------|--(2)------(4/5)------|
|--(5)------1--1------|--0----------------|--(0)------(2/3)------|
           ...

|---------------------|---------------------||
|---------------------|---------------------||
|---------------------|---------------------||
|---------------------|---------------------||
|--(5/7)--------------|--(7)------3--3------||
|--(3/5)--------------|--(5)------1--1------||
                                 ...



Note the slight variations in the transitional slides between chords



================================================================================
Section 2.1: Guitar 1 (Play 4 times)
================================================================================


||-------------------------|----------------------------|
||-------------------------|----------------------------|
||-------------------------|----------------------------|
||--------7 h 9--9------7--|--7 h 9--9--- \ 4 h 5--5----|
||-----7-------------------|----------------------------|
||--0----------------------|----------------------------|

                                               |_3_|
|_______________________________________________________[1,3]
|--------------------------|------------------------------| |
|--------------------------|------------------------------| |
|--------------------------|------------------------------|*|
|--(5 /7)--7----7-------5--|--5 h 7--7--- \ 5--7p5h7\4----|*|
|--------------------------|------------------------------| |
|--------------------------|------------------------------| |

|____________________________________________________[2]
|--------------------------|---------------------------|
|--------------------------|---------------------------|
|--------------------------|---------------------------|
|--(5 /7)--7----7-------5--|--5 h 7--7---(7/10)--9-----|
|--------------------------|---------------------------|
|--------------------------|---------------------------|

|____________________________________________________[4]
|--------------------------|--------------------------||
|--------------------------|--------------------------||
|--------------------------|--------------------------||
|--(5 /7)--7----7-------5--|--5 h 7--7----5--4---  \--||
|--------------------------|--------------------------||
|--------------------------|--------------------------||



================================================================================
Section 2.2: Guitar 2 (Play twice)
================================================================================


||-------------------------|----------------------------|
||-------------------------|----------------------------|
||----------------------7--|--7 h 9--9-- \--------------|
||--------7 h 9--9---------|----------------4 h 5--5----|
||-----7-------------------|----------------------------|
||--0----------------------|----------------------------|

                                              |_3__|
|-------------------------|-------------------------------|
|-------------------------|-------------------------------|
|-------------------------|----------------9--9h11p9\7----|
|--(5 /7)--7----7------5--|--5 h 7--7-- \-----------------|
|-------------------------|-------------------------------|
|-------------------------|-------------------------------|


|-------------------------|----------------------------|
|-------------------------|----------------------------|
|-------------------------|----------------------------|
|--------7 h 9--9------7--|--7 h 9--9--- \ 4 h 5--5----|
|-----7-------------------|----------------------------|
|--0----------------------|----------------------------|

|______________________________________________________[1]
|-----------------------------|------------------------| |
|-----------------------------|------------------------| |
|-----------------------------|------------------------|*|
|--(5 /7)--(7\2)----2------0--|--0 h 2--2--------------|*|
|-----------------------------|--------------3--2------| |
|-----------------------------|------------------------| |

|______________________________________________________[2]
|-----------------------------|-------------------------||
|-----------------------------|-------------------------||
|-----------------------------|-------------------------||
|--(5 /7)--(7\2)----2------0--|--0 h 2--2---------------||
|-----------------------------|--------------3--2-------||
|-----------------------------|----------------------0--||
                                                    ...



================================================================================
Section 3: Guitars 1 & 2 (Play 4 times)
================================================================================


||-------------------------------|-----------------------------|
||-------------------------------|-----------------------------|
||-------------------------------|-----------------------------|
||-------------------------------|-----------------------------|
||-(15\14)---14--0--14----14--0--|--14--14----14--14----14--0--|
||--12-------12--0--12----12--0--|--10--10----10--10----10--0--|
                ...          ...                           ...

|-----------------------------|---------------------------| |
|-----------------------------|---------R-----------------| |
|-----------------------------|---------E-----------------|*|
|-----------------------------|---------S-----------------|*|
|--12----12--12--12----12--0--|--5---5--T--5  \  2---- /--| |
|--8-----8---8---8-----8---0--|--2 / 3-----2  \  0--------| |
                          ...



================================================================================
Guitars 1 & 2 repeat Section 2
================================================================================

================================================================================
Guitars 1 & 2 repeat Section 3, ending on the following chord:
================================================================================


||-------------------||
||-------------------||
||-------------------||
||--8----------------||
||--6----------------||
||--6----------------||



Hold and fade out over the course of 6 bars



================================================================================
Section 4.1: Guitar 3 with Heavy Distortion and Ebow (Play once)
================================================================================


Rest for 2 bars


||---------------------|-----------------------|
||--R-     ------------|-----------------------|
||--E--    -11---------|--(11)-------------- \ |
||--S-     ------------|-----------------------|
||--T-     ------------|-----------------------|
||---------------------|-----------------------|


|-------------------------|----------------------|------------------------|
|-------------------------|----------------------|------------------------|
|--10------- \ 7------- / | -8---------------- / | -10------- / 11--------|
|-------------------------|----------------------|------------------------|
|-------------------------|----------------------|------------------------|
|-------------------------|----------------------|------------------------|


|-----------------------|-------------------------|-------------------|
|-----------------------|-------------------------|-------------------|
|--(11)-------------- \ | -10------- \ 7------- / | -8----------------|
|-----------------------|-------------------------|-------------------|
|-----------------------|-------------------------|-------------------|
|-----------------------|-------------------------|-------------------|


|---------------|-------------------|-------------------||
|---------------|-------------------|-------------------||
|--(8)----------|--(8)--------------|--(8)--------------||
|---------------|-------------------|-------------------||
|---------------|-------------------|-------------------||
|---------------|-------------------|-------------------||



The Ebow is set to the harmonic setting, making the pitch sound one octave
higher



================================================================================
Section 4.2: Guitar 4 with Clean Tone (Play once)
================================================================================


* Let notes ring wherever possible *


    |__3__|  |__3__|
||-----------------------------|-------------------|---------------|
||-----------------------------|-------------------|--R-          -|
||-----------------------------|-------------------|--E-          -|
||-----------------4-----------|--(4)--------------|--S-          -|
||-----6-----6-----------------|--(6)--------------|--T-          -|
||--6-----6-----6--------------|--(6)--------------|---------------|

                            |__3__|  |__3__|
|-------------------|------------------------------| |---------------| |
|--               --|--    ------------------------| |---------------| |
|--               --|--    ------------------------|3|---------------|4|
|--               --|--    ------------------------|/|---------------|/|
|--               --|--    ----6-----6-------------|4|---------------|4|
|-------------------|-------6-----6-----6--2-------| |--(2)----------| |



================================================================================
Section 5.1: Guitar 4 (Play 16 times) [ Tempo = 110 BPM ]
================================================================================


* Let notes ring wherever possible *


    |__3__|  |__3__|  |__3_|  |__3__|
||-------------------------------------| |
||-------------------------------------| |
||-------------------------------------|*|
||--------------------4----------4-----|*|
||-----6-----6-----6-------6--------6--| |
||--6-----6-----6-------------6--------| |



================================================================================
Section 5.2: Guitar 3 with Ebow (Play 4 times)
================================================================================


||----------------------|------------------------|----------------------|
||----------------------|------------------------|----------------------|
||----------------------|------------------------|----------------------|
||----------------------|------------------------|----------------------|
||--9---------------- \ | -8------- \ 5------- / | -6---------------- / |
||----------------------|------------------------|----------------------|


|----------------------| |
|----------------------| |
|----------------------|*|
|----------------------|*|
|--8------ / -9--------| |
|----------------------| |



The Ebow is set to normal mode for this part



================================================================================
Section 6: Guitars 1 & 2 (Play twice) [ Tempo = 121 BPM ]
================================================================================


    |_3__|  |__3__|  |__3__|  |__3__|
||-------------------------------------|
||-------------------------------------|
||--8----8--8--8--8--8--8--8--8--8--8--|
||--8----8--8--8--8--8--8--8--8--8--8--|
||--6----6--6--6--6--6--6--6--6--6--6--|
||--6----6--6--6--6--6--6--6--6--6--6--|

   |__3__|  |__3__|  |__3__|  |__3__|
|--------------------------------------|
|--------------------------------------|
|--8--8--8--8--8--8--------------------|
|--8--8--8--8--8--8--9--9--9--9--9--9--|
|--6--6--6--6--6--6--9--9--9--9--9--9--|
|--6--6--6--6--6--6--7--7--7--7--7--7--|

   |__3__|  |__3__|  |__3__|  |__3__|
|--------------------------------------|
|--------------------------------------|
|--------------------------------------|
|--7--7--7--7--7--7--7--7--7--7--7--7--|
|--7--7--7--7--7--7--7--7--7--7--7--7--|
|--5--5--5--5--5--5--5--5--5--5--5--5--|

   |__3__|  |__3__|  |__3__|  |__3__|
|--------------------------------------| |
|--------------------------------------| |
|--5--5--5--5--5--5--------------------|*|
|--5--5--5--5--5--5--4--4--4--4--4--4--|*|
|--3--3--3--3--3--3--4--4--4--4--4--4--| |
|--3--3--3--3--3--3--2--2--2--2--2--2--| |



================================================================================
Guitars 3 & 4 repeat their respective parts for Section 5 [ Tempo = 110 BPM ]
================================================================================

================================================================================
Guitars 1 & 2 repeat Section 6 [ Tempo = 121 BPM ]
================================================================================

================================================================================
Guitars 3 & 4 repeat their respective parts for Section 5 [ Tempo = 110 BPM ]
================================================================================

================================================================================
Guitars 1 & 2 repeat Section 6 with the following variations [ Tempo = 121 BPM ]
================================================================================


    |__3__|  |__3__|  |___3__|  |__3__|
||---------------------------------------|
||---------------------------------------|
||--8--8--8--8--8--8--8------8--8--8--8--|
||--8--8--8--8--8--8--8------8--8--8--8--|
||--6--6--6--6--6--6--7 p 6--6--6--6--6--|
||--6--6--6--6--6--6--6------6--6--6--6--|


   |_3__|  |__3__|  |_3__|  |__3__|     |__3__|  |__3__|  |_3__|  |__3__|
|------------------------------------|-------------------------------------|
|------------------------------------|-------------------------------------|
|--8----8--8--8--8-------------------|-------------------------------------|
|--8----8--8--8--8--9----9--9--9--9--|--7--7--7--7--7--7--7----7--7--7--7--|
|--6----6--6--6--6--9----9--9--9--9--|--7--7--7--7--7--7--7----7--7--7--7--|
|--6----6--6--6--6--7----7--7--7--7--|--5--5--5--5--5--5--5----5--5--5--5--|


   |__3__|  |__3__|
|____________________________[1,2,3]
|--------------------------------| |
|--------------------------------| |
|--5--5--5--5--5--5--------------|*|
|--5--5--5--5--5--5--------------|*|
|--3--3--3--3--3--3--------------| |
|--3--3--3--3--3--3--2b3r2b3r2~~-| |


   |__3__|  |__3__|  |__3__|  |__3__|
|_____________________________________[4]
|--------------------------------------||
|--------------------------------------||
|--5--5--5--5--5--5--------------------||
|--5--5--5--5--5--5--4--4--4--4--4--4--||
|--3--3--3--3--3--3--4--4--4--4--4--4--||
|--3--3--3--3--3--3--2--2--2--2--2--2--||



Repeat the last bar twice



Guitar 2 mimics Guitar 1 except for the second bar, which is played as follows:


   |__3_|  |__3___|  |__3___|  |___3____|
|------------------------------------------|
|------------------------------------------|
|--8----8--8--8--11--11----11--11--11--11--|
|--8----8--8--8--x---x-----x---x---x---x---|
|--6----6--6--6--9---9-----9---9---9---9---|
|--6----6--6--6----------------------------|



================================================================================
Section 7: Guitars 1 & 2 (Play 5 times) [ Tempo = 96 BPM ]
================================================================================


||-------------------------|----------------------------|
||-------------------------|----------------------------|
||-------------------------|----------------------------|
||--------7 h 9--9------7--|--7 h 9--9--- \ 4 h 5--5----|
||-----7-------------------|----------------------------|
||--0----------------------|----------------------------|


|-------------------------|--------------------------|/|-------------------|
|-------------------------|--------------------------|/|-------------------|
|-------------------------|--------------------------|/|-------------------|
|--(5 /7)--7----7------5--|--5 h 7--7-- \------------|/|-------------------|
|-------------------------|----------------3--3------|/|--2----------------|
|-------------------------|----------------1--1------|/|--0----------------|
                                          ...

|---------------------|----------------------|---------------------||
|---------------------|----------------------|---------------------||
|---------------------|----------------------|---------------------||
|---------------------|----------------------|---------------------||
|--(2)------5----5----|--(5/7)--7------------|--(7)------3--3------||
|--(0)------3----3----|--(3/5)--5------------|--(5)------1--1------||
                                                        ...


Guitar 1 plays along for the first two bars, at which point Guitar 2 joins in
with the first two bars of Section 1.2.  After the first 4 bars of this section
are played they are ignored from then on.



================================================================================
Guitars 1 & 2 repeat Section 2
================================================================================

================================================================================
Guitars 1 & 2 repeat the last four bars of Section 7 four times while Guitar 3
plays the following lead section (without an Ebow):
================================================================================


||-------------------|---------------------------|
||-------------------|---------------------------|
||--9----------------|--(9)----- / 16~~---16~~---|
||-------------------|---------------------------|
||-------------------|---------------------------|
||-------------------|---------------------------|


|---------------------------|--------------------------| |
|---------------------------|--------------------------| |
|--16 p 14--14----14--------|--(14)-----17--17~~--  \--|*|
|---------------------------|--------------------------|*| x 4
|---------------------------|--------------------------| |
|---------------------------|--------------------------| |



================================================================================
Outro: Guitars 4 & 5 with Clean Tone (Play once)
================================================================================


* Let notes ring wherever possible *


---------
Guitar 4:
---------


||------------------------|--------------------|--------------------|
||------------------------|--------------------|--------------------|
||------------------------|--------------------|--------------------|
||------------------------|--------------------|--------------------|
||--15 \ 14---------------|--14----------------|--12----------------|
||--12--------------------|--10----------------|--8-----------------|


|-----------------------|---------------------|---------------------|
|-----------------------|--R------------------|---------------------|
|-----------------------|--E------------------|---------------------|
|-----------------------|--S------------------|---------------------|
|--5-----5--5----2------|--T--------14--------|--(14)-----14--------|
|--2--3--3--2----0------|-----------12--------|--(12)-----10--------|


|---------------------|-----------------------|-------------------||
|---------------------|-----------------------|-------------------||
|---------------------|-----------------------|-------------------||
|---------------------|-----------------------|-------------------||
|--(14)-----12--------|--5-----5--5----2------|--(2)--------------||
|--(10)-----8---------|--2--3--3--2----0------|--(0)--------------||



---------
Guitar 5:
---------


||---------------------|---------------------|---------------------|
||--R-      -----------|---------------------|---------------------|
||--E-      -----------|---------------------|---------------------|
||--S-      -----------|---------------------|---------------------|
||--T-      -14--------|--(14)-----14--------|--(14)-----12--------|
||-----------12--------|--(12)-----10--------|--(10)-----8---------|


|-------------------|------------------------|--------------------|
|--R-              -|------------------------|--------------------|
|--E-              -|------------------------|--------------------|
|--S-              -|------------------------|--------------------|
|--T-              -|--15 \ 14---------------|--14----------------|
|-------------------|--12--------------------|--10----------------|


|--------------------|-----------------------|-------------------||
|--------------------|-----------------------|-------------------||
|--------------------|-----------------------|-------------------||
|--------------------|-----------------------|-------------------||
|--12----------------|--5-----5--5----2------|--(2)--------------||
|--8-----------------|--2--3--3--2----0------|--(0)--------------||



Guitar 4 is panned to the left and Guitar 5 is panned to the right



================================================================================
End
================================================================================


Tab summary:        Section 1.1 x 4 + 1.2 x 1
                    Section 2.1 x 4 + 2.2 x 2
                    Section 3 x 4
                    Section 2.1 x 4 + 2.2 x 2
                    Section 3 x 4
                    Section 4 x 1
                    Section 5.1 x 16 + 5.2 x 4
                    Section 6 x 2
                    Section 5.1 x 16 + 5.2 x 4
                    Section 6 x 2
                    Section 7 x 5
                    Section 2.1 x 4 + 2.2 x 2
                    Section 7 x 4 + Lead
                    Outro x 1

                    END

  Visit MetalTabs.com for more metal tablature

bottom separator

Contact Us | Privacy Policy | Disclaimer | Legal Notice
Copyright © 2001-2014 MetalTabs.com. All Rights Reserved.