top separator

Home

Forum

What's New

Submit a Tab

FAQ

Links

Contact Us

Link to Us

MuSpy.com

MetalTabs.com logo

Bands

0-9

A

B

C

D

E

F

G

H

I

J

K

L

M

N

O

P

Q

R

S

T

U

V

W

X

Y

Z

Search

What

Where
 

My Dying Bride - "All Swept Away" Bass Tab

Plain Text Version
More My Dying Bride Tabs

Hits: 741
Updated: 2010-07-25 15:19:28

 

By:

Paddy

sendpm.gif

email.gif

Important note
This tab is available online because we obtained explicit permission from My Dying Bride or their label.


#----------------------------------PLEASE NOTE---------------------------------#
#This file is the author's own work and represents their interpretation of the #
#song. You may only use this file for private study, scholarship, or research. #
#Unless specified otherwise, this is NOT an official tab from the band members.#
#------------------------------------------------------------------------------#

  Visit MetalTabs.com for more metal tablature
  
================================================================================
                           M Y   D Y I N G   B R I D E

                                        -

                           A L L   S W E P T   A W A Y
================================================================================


                               LIKE GODS OF THE SUN
                          (c) Peaceville Records (1996)
                           http://www.mydyingbride.org/


                      Tune Down 1 & 1/2 Steps [5-string Bass]
                                  G# C# F# B E

                                 Tempo = 84 BPM
                          Time Signature = 4/4 Throughout



                           -----------------------------
                                  Transcribed by

                                  PADDY MCMULLAN
                            pmtabs (@t) gmail [dot] com

                                    Version 1.0
                                 6th  January 2010
                              -----------------------

                              Tablature Symbols Used:



 \         -  Slide Down to/Down From (Blank spaces indicate length of slide)
 ( / )     -  Legato Slide (Blank spaces indicate length of slide)
 ( )       -  Ghost Note/Tied Note/Implied Note
 REST      -  Rest and sustain rest for the duration of blank space



================================================================================
Section 1: Play 4 times
================================================================================


||------------------------------|-----------------------------|
||------------------------------|-----------------------------|
||--5---5-5-5-6---6-6-6-6-6-6\ -|--3---3-3-3-5---5-5-5-5-5-5--|
||------------------------------|-----------------------------|
||------------------------------|-----------------------------|


|------------------------------|----------------------------------| |
|------------------------------|----------------------------------|*|
|--5---5-5-5-6---6-6-6-6-6-6\ -|--1-1-1-1-1-1-1-1-1-1-1-1-1-1-1-1-| |
|------------------------------|----------------------------------|*|
|------------------------------|----------------------------------| |



================================================================================
Section 2: Guitar 1 & 2 (Play 4 times)
================================================================================


||-----------------------||-------------------------------|
||--R-         ----------||-------------------------------|
||--E-         -8--7--5--||--7-  \------------------------|
||--S-         ----------||--------0-1-4-0---0-1-4-0-0-1--|
||--R-         ----------||-------------------------------|

|______________________[1,2,3]
|--------------------------| |
|--------------------------|*|
|-----------------8--7--5--| |
|--0---0-1-4-0-------------|*|
|--------------------------| |

|___________________________[4]
|--------------------------| |
|--------------------------|*|
|-----------------8--7--3--| |
|--0---0-1-4-0-------------|*|
|--------------------------| |



On repeats 2 and 4 the last note of the first bar is replaced with a 3



================================================================================
Repeat Section 1 twice
================================================================================

================================================================================
Section 3: Guitars 1 and 2 (Play 4 times)
================================================================================


||-----------------------|------------------------------| |
||-----------------------|------------------------------|*|
||--------------3--2-----|------------------------------| |
||--4------3----------1--|--0-0-0--0-0-0--0-0-0--0-0-0--|*| x 4
||-----------------------|------------------------------| |


|-----------------------||
|-----------------------||
|--------------8--7--5--||
|--4------3-------------||
|-----------------------||



================================================================================
Repeat Section 2
================================================================================

================================================================================
Section 4: Play 8 times
================================================================================


||--------------------------|---------------------------| |
||--------------------------|---------------------------|*|
||--------------------------|---------------------------| |
||--0--0--0--0--3--3--3--2--|--2--2--2 / 6--5--5--5--5--|*|
||--------------------------|---------------------------| |



================================================================================
Repeat Section 3 with the following variations:
================================================================================


||------------------------------|------------------------------|
||------------------------------|------------------------------|
||------------------------------|------------------------------|
||--0-0-0--0-0-0--0-0-0--0-0-0--|--0-0-0--0-0-0--0-0-0--0-0-0--|
||------------------------------|------------------------------|


|-----------------------| |
|-----------------------|*|
|--------------3--2-----| |
|--4------3----------1--|*|
|-----------------------| |



================================================================================
Repeat Section 1 twice, leaving out the very last note of the last repeat
================================================================================

================================================================================
End
================================================================================


Tab summary:        Section 1 x 4
                    Section 2 x 4
                    Section 1 x 2
                    Section 3 x 4
                    Section 2 x 3
                    Section 4 x 16
                    Section 3 Variation x 4
                    Section 1 x 2

                    END

  Visit MetalTabs.com for more metal tablature

bottom separator

Contact Us | Privacy Policy | Disclaimer | Legal Notice
Copyright © 2001-2014 MetalTabs.com. All Rights Reserved.