top separator

Home

Forum

What's New

Submit a Tab

FAQ

Links

Contact Us

Link to Us

MuSpy.com

MetalTabs.com logo

Bands

0-9

A

B

C

D

E

F

G

H

I

J

K

L

M

N

O

P

Q

R

S

T

U

V

W

X

Y

Z

Search

What

Where
 

Katatonia - "Love of the Swan" Guitar Tab

Plain Text Version
More Katatonia Tabs

Hits: 1630
Rated: 5.00 out of 5 (11 votes)
Updated: 2011-04-16 02:49:15

 

By:

Lord_Seth

sendpm.gif

email.gif

Important note
This tab is available online because we obtained explicit permission from Katatonia or their label.


#----------------------------------PLEASE NOTE---------------------------------#
#This file is the author's own work and represents their interpretation of the #
#song. You may only use this file for private study, scholarship, or research. #
#Unless specified otherwise, this is NOT an official tab from the band members.#
#------------------------------------------------------------------------------#

  Visit MetalTabs.com for more metal tablature
  
Band:  Katatonia
Album: Brave Yester Days
Song:  Love of the Swan

Copyright (c)  Avantgarde 2004
Version 2.1 - 13/06/2010

Transcribed By: Lord Seth
Email:          iztlacoliuhqui@gmail.com


.  - palm mute           /  - slide up to
  - slide down to       ~  - vibrato
h  - hammer on           b  - Bend
p  - pull off            Suffixes for bend
t  - tap                 f  - full bend    h - half bend
ph - pinched harmonic    q  - quarter bend t - tap bend
*  - see comment         ^  - Hold bend    r release bend
x  - Stuccatto           ~  - vibrato bend
,  - slight palm mute    () - ghost note, sustained note
"  - tremolo note        <> - Trill

Tuning E A D G B E



Riff A

|------------------------------------------------------|
|------------------------------------------------------|
|-------------------------------------------------2-2--|
|--5-5-3-3-2-2--5-5-3-3-2-2--2-2-3-3-5-5--0-0-5-5------|
|------------------------------------------------------|
|------------------------------------------------------|x4



Riff B

|-------------------------------------------------------|
|-------------------------------------------------------|
|--5-5-4-4-0-0--5-5h7p5p4-0-0--5-5-4-4-0-0--2~-2~--2~~--|
|-------------------------------------------------------|
|-------------------------------------------------------|
|-------------------------------------------------------|



Riff C

|---------------------------------------------------|
|---------------------------------------------------|
|-----------------------------------/2-4-4/5/4-2-0--|
|--2-5-5-3-2----5-5-3-2----5-5-3-2-2----------------|
|------------2----------3---------------------------|
|---------------------------------------------------|x2



Riff B

Riff C x2



Riff D

|----------------------|
|-----------5-6---5-6--|
|--92-2--3-----5------|
|----------------------|
|----------------------|
|----------------------|x4



Riff E

|-------------------------------------------|
|-------------------------------------------|
|-------------------------------------------|
|--52-2--4/5---------4-----2-2--5h7p5p42--|
|--------------52-2----5-5-----------------|
|-------------------------------------------|x4


Riff F

A
|-------------------------------|
|-------------------------------|
|-------------------------------|
|--2-1----2-1----2-1------------|
|------2-------------2-1-1-2-6--|
|-------------4--------------4--|

B
|---------------------------------|
|---------------------------------|
|---------------------------------|
|--2-1----2-1----2-1--------------|
|------2-------------2-1-1-2------|
|-------------4--------------64--|x2

C
|-------------------------------|
|-------------------------------|
|-------------------------------|
|--2-1----2-1----2-1---------6--|
|------2-------------2-1-1-2-6--|
|-------------4--------------4--|



Interlude


Figure  A

|------------------------------------------------|
|------------------------------------------------|
|--------10----9h10----10-------10----9h10-------|
|--12-12----12------12-------12----12------10-9--|
|------------------------------------------------|
|--10---------------------10---------------------|


Figure B

|---------------------------------------|
|---------------------------------------|
|-----------9-----------------9---------|
|----7-10-7---7-10-9-7-9-10-7---7-10-9--|
|--0-----------------0------------------|
|---------------------------------------|


Figure A


Figure C

|---------------------------------------|
|---------------------------------------|
|-----------9-----------------9---------|
|----7-10-7---7-10-9---7-10-7---7-10-9--|
|--0-----------------0------------------|
|---------------------------------------|


Figure A


Fill

|------------------------|
|------------------------|
|-----------9---------9--|
|----7-10-7---7-10-9--7--|
|--0------------------0--|
|------------------------|


Riff A x4

Riff B

Riff C x2

Riff B

Riff C x2

Riff D x4

Riff E x4



Fill

|--------------------|
|--------------------|
|--------------------|
|----22--2(2)(2)(2)--|
|----22--2(2)(2)(2)--|
|----00--0(0)(0)(0)--|
p.m. ..



Outro

|---------------------------------------------|
|---------------------------------------------|
|---------------------------------------------|
|-----------------------------------------/9--|
|--9-9-9-9-9-9-9/11-11/12-7-7-7-7-11-11-11/9--|
|--7-7-7-7-7-7-7/9---9/10-5-5-5-5--9--9--9/7--|x6


End

  Visit MetalTabs.com for more metal tablature

bottom separator

Contact Us | Privacy Policy | Disclaimer | Legal Notice
Copyright © 2001-2014 MetalTabs.com. All Rights Reserved.