top separator

Home

Forum

What's New

Submit a Tab

FAQ

Links

Contact Us

Link to Us

MetalTabs.com logo

Bands

0-9

A

B

C

D

E

F

G

H

I

J

K

L

M

N

O

P

Q

R

S

T

U

V

W

X

Y

Z

Search

What

Where
 

My Dying Bride - "Thy Raven Wings" Guitar Tab

Plain Text Version
More My Dying Bride Tabs

Hits: 1315
Rated: 5.00 out of 5 (1 vote)
Updated: 2011-04-16 02:57:11

 

By:

Paddy

sendpm.gif

email.gif

Important note
This tab is available online because we obtained explicit permission from My Dying Bride or their label.


#----------------------------------PLEASE NOTE---------------------------------#
#This file is the author's own work and represents their interpretation of the #
#song. You may only use this file for private study, scholarship, or research. #
#Unless specified otherwise, this is NOT an official tab from the band members.#
#------------------------------------------------------------------------------#

  Visit MetalTabs.com for more metal tablature
  
================================================================================
                           M Y   D Y I N G   B R I D E

                                        -

                          T H Y   R A V E N   W I N G S
================================================================================


                            A LINE OF DEATHLESS KINGS
                          (c) Peaceville Records (2006)
                           http://www.mydyingbride.org/


                             Tune Down  1 & 1/2 Steps
                                 C# F# B E G# C#

                                  Tempo = 90 BPM
                               Time Signature = 4/4



                          -----------------------------
                                  Transcribed by

                                  PADDY MCMULLAN
                            pmtabs (@t) gmail [dot] com

                                   Version 1.0
                                 10th March 2010
                             -----------------------

                             Tablature Symbols Used:


 p         -  Pull-Off
 h         -  Hammer-On
 P.M...    -  Palm Mute
          -  Slide Down to/Down From
 /         -  Slide Up To/Up From
 ( / )     -  Legato Slide
 ( )       -  Ghost Note/Tied Note/Implied Note
 REST      -  Rest and sustain rest for duration of blank space
 |_3_|     -  Triplet Notes
 |__[1,2]  -  Alternative Endings



================================================================================
Rest for 8 bars
================================================================================

================================================================================
Section 1.1: Guitar 1 (Play 4 times) [ Tempo gradually increases to 98 BPM ]
================================================================================


||-----------------------|----------------------|
||-----------------------|----------------------|
||-----------------------|----------------------|
||--2-----------2--------|----------------------|
||--0--------3--------5--|--(5)------3--2----3--|
||--------------------3--|--(3)--------------1--|


|-------------------------|-------------------------| |
|-------------------------|-------------------------| |
|-------------------------|-------------------------|*|
|---------------2---(2/5)-|--(5)----5--5--7--7--7 -|*|
|--(3)----3--3------------|-------------------------| |
|--(1)--------------------|-------------------------| |



================================================================================
Section 1.2: Guitar 2 (Play once)
================================================================================


||-------------------------------|-------------------------|
||-------------------------------|-------------------------|
||-------------------------------|-------------------------|
||--7------(7 /10)--10----(75)--|--(5)----(5 /9)--9----7--|
||-------------------------------|-------------------------|
||-------------------------------|-------------------------|


|---------------------------|-------------------------------| |
|---------------------------|-------------------------------| |
|---------------------------|-------------------------------|*|
|--(7)----7--9--9---(9/12)--|-(12)----12--(12/14)--14--12  |*|
|---------------------------|-------------------------------| |
|---------------------------|-------------------------------| |



================================================================================
Section 2.1: Guitar 1 (Play once)
================================================================================

  1                     2                     3
||---------------------|---------------------|---------------------|
||---------------------|---------------------|---------------------|
||---------------------|---------------------|---------------------|
||---------------------|---------------------|---------------------|
||--7------------7--5--|--(5)----------5--3--|--(3)----------3--5--|
||--5------------5--3--|--(3)----------3--1--|--(1)----------1--3--|
                ...                   ...                   ...
 4                     5                      6
|---------------------|----------------------|---------------------|
|---------------------|----------------------|---------------------|
|---------------------|-------2--------------|---------------------|
|--------------2------|--2-------------2--0--|--(0)----------------|
|--(5)------3---------|--0-------------0--2--|--(2)----------5--3--|
|--(3)----------------|-------------------3--|--(3)----------3--1--|
                                      ...                   ...
 7                     8                     9
|---------------------|---------------------|------------------------|
|---------------------|---------------------|------------------------|
|---------------------|---------------------|------------------------|
|---------------------|--------------2------|--(2 /7)--7-------------|
|--(3)----------3--5--|--(5)------3---------|------------------7--5--|
|--(1)----------1--3--|--(3)----------------|------------------5--3--|
               ...                                            ...
 10                    11                    12
|---------------------|---------------------|---------------------|
|---------------------|---------------------|---------------------|
|---------------------|---------------------|---------------------|
|---------------------|---------------------|--------------2------|
|--(5)----------5--3--|--(3)----------3--5--|--(5)------3---------|
|--(3)----------3--1--|--(1)----------1--3--|--(3)----------------|
               ...                   ...
 13                       14                    15
|------------------------|---------------------|---------------------|
|------------------------|---------------------|---------------------|
|------------------------|---------------------|---------------------|
|--(2 /7--7)----------0--|--(0)----------------|---------------------|
|------------------7--2--|--(2)----------5--3--|--(3)----------3--5--|
|------------------5--3--|--(3)----------3--1--|--(1)----------1--3--|
                  ...                   ...                   ...
 16
|-------------------||
|-------------------||
|-------------------||
|-------------------||
|--(5)--------------||
|--(3)--------------||



================================================================================
Section 2.2: Guitar 2 (Play once)
================================================================================


  1                     2                     3
||---------------------|---------------------|---------------------|
||---------------------|---------------------|---------------------|
||---------------------|---------------------|---------------------|
||---------------------|---------------------|---------------------|
||--7------------7--5--|--(5)----------5--3--|--(3)----------3--5--|
||--5------------5--3--|--(3)----------3--1--|--(1)----------1--3--|
                ...                   ...                   ...
 4                     5                     6
|---------------------|---------------------|---------------------|
|---------------------|---------------------|---------------------|
|---------------------|---------------------|---------------------|
|-----------7--5------|--2------------------|---------------------|
|--(5)----------------|--0------------0--2--|--(2)----------5--3--|
|--(3)----------------|------------------3--|--(3)----------3--1--|
                                     ...                   ...
 7                     8                     9
|---------------------|---------------------|---------------------|
|---------------------|---------------------|---------------------|
|---------------------|---------------------|---------------------|
|---------------------|---------------------|---------------------|
|--(3)----------3--5--|--(5)----------------|--7------------7--5--|
|--(1)----------1--3--|--(3)------5--3------|--5------------5--3--|
               ...                                         ...
 10                    11                    12
|---------------------|---------------------|---------------------|
|---------------------|---------------------|---------------------|
|---------------------|---------------------|---------------------|
|---------------------|---------------------|-----------7--5------|
|--(5)----------5--3--|--(3)----------3--5--|--(5)----------------|
|--(3)----------3--1--|--(1)----------1--3--|--(3)----------------|
               ...                   ...
 13                    14                    15
|---------------------|---------------------|---------------------|
|---------------------|---------------------|---------------------|
|---------------------|---------------------|---------------------|
|--2------------------|---------------------|---------------------|
|--0------------0--2--|--(2)----------5--3--|--(3)----------3--5--|
|------------------3--|--(3)----------3--1--|--(1)----------1--3--|
               ...                   ...                   ...
 16
|-------------------| |
|-------------------| |
|-------------------|*|
|-------------------|*|
|--(5)--------------| |
|--(3)--------------| |



================================================================================
Repeat Section 1 [ Tempo gradually increases to 102 BPM ]
================================================================================

================================================================================
Section 3.1: Guitars 1 & 2 (Play twice) [ Tempo = 106 BPM ]
================================================================================


||--------------------------|--------------------------|
||--------------------------|--------------------------|
||--------------------------|--------------------------|
||--------------------------|--------------------------|
||--7--7--7--7--7--7--7--5--|--5--5--5--5--5--5--5--3--|
||--5--5--5--5--5--5--5--3--|--3--3--3--3--3--3--3--1--|
    ......................     ......................

|--------------------------|--------------------------| |
|--------------------------|--------------------------| |
|--------------------------|--------------------------|*|
|--------------------------|--------------------------|*|
|--3--3--3--3--3--3--3--5--|--5--5--5--5--5--5--5--5--| |
|--1--1--1--1--1--1--1--3--|--3--3--3--3--3--3--3--3--| |
   ......................     ......................



================================================================================
Section 3.2: Guitar 3 with Heavy Distortion (Play once)
================================================================================


||-----------------------|--------------------------|
||-----------------------|--------------------------|
||-----------------------|--------------------------|
||--7------------(5 /9)--|--(9)------9~~---(7 /10)--|
||-----------------------|--------------------------|
||-----------------------|--------------------------|


|-------------------------|----------------------------|
|-------------------------|----------------------------|
|-------------------------|----------------------------|
|--(10)-----10~~---12--9--|-(9)---(10 7)----(7 /9)~~--|
|-------------------------|----------------------------|
|-------------------------|----------------------------|


|-----------------------|----------------------------|
|-----------------------|----------------------------|
|--9-----------(7 /11)--|--(11)-----11~~---(12 7)~~-|
|-----------------------|----------------------------|
|-----------------------|----------------------------|
|-----------------------|----------------------------|


|---------------------------|-------------------------||
|---------------------------|-------------------------||
|-(7)---7~~----(7 / 9  5)--|-(5)---(74)------5-- --||
|---------------------------|-------------------------||
|---------------------------|-------------------------||
|---------------------------|-------------------------||



================================================================================
Section 4.1: Guitar 1 (Play 4 times)
================================================================================


| |----------------------|------------------------| |------------------| |
|4|----------------------|------------------------|3|------------------| |
|/|----------------------|------------------------|/|------------------|*|
|4|----------------------|------------------------|4|------------------|*| x 4
| |-------8----7------5--|--7--8---------5--7--8--| |---------5--8--7--| |
| |--5-------------------|--------8---------------| |--7---------------| |


| |------------| |
|2|------------|4|
|/|------------|/|
|4|------------|4|
| |-------8----| |
| |--5---------| |



================================================================================
Section 4.2: Guitar 2 (Play 4 times)
================================================================================


| |----------------------|------------------------| |------------------| |
|4|----------------------|------------------------|3|------------------| |
|/|----------------------|------------------------|/|------------------|*|
|4|----------------------|------------------------|4|------------------|*| x 2
| |-------8----7------5--|--7--8---------5--7--8--| |---------5--8--7--| |
| |--5-------------------|--------8---------------| |--7---------------| |


| |----------------------|------------------------| |------------------| |
|4|----------------------|------------------------|3|------------------| |
|/|----------------------|------------------------|/|------------------|*|
|4|-------7----5---------|------------------------|4|------------------|*| x 2
| |-------------------5--|--7--8--7------(5 /10)--| |---------7--8--7--| |
| |--5-------------------|------------------------| |--10--------------| |


| |------------| |
|2|------------|4|
|/|------------|/|
|4|-------7----|4|
| |------------| |
| |--5---------| |



================================================================================
Section 5.1: Guitar 1 (Play once)
================================================================================


||--------------------------|--------------------------|
||--------------------------|--------------------------|
||--------------------------|--------------------------|
||--7--7--7--7--7--7--5-----|--------------------------|
||-----------------------7--|--7--7--7--7--7--7--5--8--|
||--------------------------|--------------------------|


|---------------------------|--------------------------||
|---------------------------|--------------------------||
|---------------------------|--------------------------||
|---------------------------|--------------------------||
|--8--8--8--8--8--8--10--7--|--7--7--8--5--5--5--5--7--||
|---------------------------|--------------------------||



================================================================================
Section 5.2: Guitar 2 (Play once)
================================================================================


||---------------------------|----------------------------|
||---------------------------|----------------------------|
||---------------------------|----------------------------|
||--7--7--7--7--7--7--(5/9)--|--9--9--9--9--9--9--(7/10)--|
||---------------------------|----------------------------|
||---------------------------|----------------------------|


|---------------------------------|----------------------------||
|---------------------------------|----------------------------||
|---------------------------------|----------------------------||
|--10--10--10--10--10--10--12--9--|--9--9--10  7--7--7--7--9--||
|---------------------------------|----------------------------||
|---------------------------------|----------------------------||



================================================================================
Repeat Section 4
================================================================================

================================================================================
Section 6: Guitars 1 & 2 (Play once)
================================================================================


||----------------------|------------------------|
||--------R-  ----------|------------------------|
||--4--4--E-  -4--------|---------------4--------|
||--2--2--S-  -2--------|---------------2--------|
||--2--2--T-  -2--------|--2----2----2--2--2--0--|
||-------------0--------|--3----3----3-----2--0--|


|------------------------|-------------------------|
|--------R-  ------------|-------------------------|
|--4--4--E-  -4----4--4--|-------------------------|
|--2--2--S-  -2----2--2--|-------------------------|
|--3--2--T-  -2----2--2--|--2----2----2 / 4--4-----|
|-------------0----0-----|--3----3----3 / 5--5--0--|


|-----------------------|------------------------|
|--------R-  -----------|------------------------|
|--4--4--E-  -4------4--|---------------4--------|
|--2--2--S-  -2------2--|---------------2--------|
|--3--2--T-  -2------2--|--2----2----2--2--2--0--|
|-------------0---------|--3----3----3-----2--0--|


|-----------------------|-------------------------|
|--------R-  -----------|-------------------------|
|--4--4--E-  -4------4--|-------------------------|
|--2--2--S-  -2------2--|-------------------------|
|--3--2--T-  -2------2--|--2----2----2 / 4--4-----|
|-------------0---------|--3----3----3 / 5--5--0--|


|-----------------------|------------------------|
|--------R-  -----------|------------------------|
|--4--4--E-  -4------4--|---------------4--------|
|--2--2--S-  -2------2--|---------------2--------|
|--3--2--T-  -2------2--|--2----2----2--2--2--0--|
|-------------0---------|--3----3----3-----2--0--|


|-----------------------|-------------------------|
|--------R-  -----------|-------------------------|
|--4--4--E-  -4------4--|-------------------------|
|--2--2--S-  -2------2--|-------------------------|
|--3--2--T-  -2------2--|--2----2----2 / 4--4-----|
|-------------0---------|--3----3----3 / 5--5--0--|


|-----------------------|------------------------|
|--------R--------------|------------------------|
|--4--4--E-  -4------4--|---------------4--------|
|--2--2--S-  -2------2--|---------------2--------|
|--3--2--T-  -2------2--|--2----2----2--2--2--0--|
|-------------0---------|--3----3----3-----2--0--|


|-----------------------|-------------------------||
|--------R-  -----------|-------------------------||
|--4--4--E-  -4------4--|-------------------------||
|--2--2--S-  -2------2--|-------------------------||
|--3--2--T-  -2------2--|--2----2----2 / 4--4-----||
|-------------0---------|--3----3----3 / 5--5--0--||



================================================================================
Repeat Section 1 with the following lead [ Tempo = 100 BPM ]
================================================================================


||----------------------------|--------------------------|
||-------------13--12---------|-----------13--12---------|
||--14~~-----------------12~~-|--(12)---------------14~~-|
||--x--------------------x----|---------------------x----|
||--12~~-----------------10~~-|--(10)---------------12~~-|
||----------------------------|--------------------------|


|--------------------------|-----------------------------|
|-----------13--12---------|-----------------------------|
|-(14)----------------12~--|-(12)--14--12----12--14--12--|
|---------------------x----|-------x---x-----x---x---x---|
|-(12)----------------10~~-|-(10)--12--10----10--12--10--|
|--------------------------|-----------------------------|


|----------------------------|-----------------------------|
|-------------13--12---------|--------------13--12---------|
|--14~~-----------------12~~-|-(12)-------------------14~~-|
|--x--------------------x----|------------------------x----|
|--12~~-----------------10~~-|-(10)--10~~-------------12~~-|
|----------------------------|-----------------------------|


|-----------------------------|-----------------------------|
|--------------13--12---------|-----------------------------|
|-(14)-------------------12~~-|-(12)--14--12----12--14--12--|
|------------------------x----|-------x---x-----x---x---x---|
|-(12)--12~~-------------10~~-|-(10)--12--10----10--12--10--|
|-----------------------------|-----------------------------|


|--------------------||
|--------------------||
|--14----------------||
|--x-----------------||
|--12----------------||
|--------------------||



All 3 guitars allow their last notes to ring out



================================================================================
End
================================================================================


Tab summary:        Section 1 x 4
                    Section 2 x 1
                    Section 1 x 4
                    Section 3 x 2
                    Section 4 x 4
                    Section 5 x 1
                    Section 4 x 4
                    Section 6 x 1
                    Section 1 x 6

                    END

  Visit MetalTabs.com for more metal tablature

bottom separator

Contact Us | Privacy Policy | Disclaimer | Legal Notice
Copyright © 2001-2014 MetalTabs.com. All Rights Reserved.