top separator

Home

Forum

What's New

Submit a Tab

FAQ

Links

Contact Us

Link to Us

MuSpy.com

MetalTabs.com logo

Bands

0-9

A

B

C

D

E

F

G

H

I

J

K

L

M

N

O

P

Q

R

S

T

U

V

W

X

Y

Z

Search

What

Where
 

Antaeus - "De Principii Evangelikum" Guitar Tab

Plain Text Version
More Antaeus Tabs

Hits: 1236
Rated: 4.60 out of 5 (5 votes)
Updated: 2010-03-09 17:09:38

 

By:

Wolfsherz

sendpm.gif

email.gif

Important note
This tab is available online because we obtained explicit permission from Antaeus or their label.


#----------------------------------PLEASE NOTE---------------------------------#
#This file is the author's own work and represents their interpretation of the #
#song. You may only use this file for private study, scholarship, or research. #
#Unless specified otherwise, this is NOT an official tab from the band members.#
#------------------------------------------------------------------------------#

  Visit MetalTabs.com for more metal tablature
  
Band:AntaeuS
Album: De Principii Evangelikum
Song: De Principii Evangelikum

Copyright (c) Osmose 2002

Transcribed By: Jens Cautereels
Email: cautereels.jens@gmail.com

* = palmmuting

Tuning C F Bb Eb G C
Guitar 1:
C  -----------------------------------
G  -55555555666666665555555544443333--
Eb -44444444555555554444444433332222--
Bb -22222222333333332222222211110000--
F  -----------------------------------
C  -----------------------------------
Guitar 2:
C  -----------------------------------------------
G  -----------------------------------------------
Eb -----9999----10101010----99991515151514141414--
Bb -22229999554410101010222299991313131312121212--
F  -2222777755448-8-8-8-22227777------------------
C  -0000----3322--------0000----------------------

C  --------------------------------- Air escaped
G  ----------5-5-----5-5-----5-5---- Breathing
Eb ------4-4-4-4-4-4-4-4-4-4-4-4---- Searching
Bb -2----2-2-2-2-2-2-2-2-2-2-2-2-3--
F  -2----2-2-2-2-2-2-2-2-2-2-2-2-3--
C  -0----0-0-0-0-0-0-0-0-0-0-0-0-1-- The Konvent Klimaxxx
Guitar 1:
C  -----------------------------------
G  -55555555666666665555555544443333--
Eb -44444444555555554444444433332222--
Bb -22222222333333332222222211110000--
F  -----------------------------------
C  -----------------------------------
Guitar 2:
C  -----------------------------------------------
G  -----------------------------------------------
Eb -----9999----10101010----99991515151514141414--
Bb -22229999554410101010222299991313131312121212--
F  -2222777755448-8-8-8-22227777------------------ One final gasp
C  -0000----3322--------0000---------------------- Before mind's
   Twilight       x3
C  -----------------|---------
G  -----------------|---------
Eb -------------567-|---------
Bb -222222222222345-|-5--3-5--
F  -000000000000----|-5--3-5--
C  -----------------|-3--1-3--
                       x3
C  ----------------------|-----------------------
G  ----------------------|-----------------------
Eb ---101066101099779977-|---101066101099779999--
Bb -7-8-8-448-8-77557755-|-7-8-8-448-8-77557777--
F  -7-8-8-448-8-77557755-|-7-8-8-448-8-77557777--
C  -5--------------------|-5---------------------
                  x3
C  -----------------|---------
G  -----------------|--------- a Negatron of Flesh
Eb -------------567-|---------
Bb -222222222222345-|-5--3-5--   soon to be
F  -000000000000----|-5--3-5--
C  -----------------|-3--1-3--

   Sakro-stained       x3
C  ----------------------|-----------------------
G  ----------------------|-----------------------
Eb ---101066101099779977-|---101066101099779999--
Bb -7-8-8-448-8-77557755-|-7-8-8-448-8-77557777--
F  -7-8-8-448-8-77557755-|-7-8-8-448-8-77557777--
C  -5--------------------|-5---------------------

Guitar 1:
C  -----------------------------------
G  -55555555666666665555555544443333--
Eb -44444444555555554444444433332222--
Bb -22222222333333332222222211110000--
F  -----------------------------------
C  -----------------------------------
Guitar 2:
C  -----------------------------------------------
G  -----------------------------------------------
Eb -----9999----10101010----99991515151514141414--
Bb -22229999554410101010222299991313131312121212--
F  -2222777755448-8-8-8-22227777------------------
C  -0000----3322--------0000----------------------

C  ---------------------------------
G  ----------5-5-----5-5-----5-5---- PRINCIPII
Eb ------4-4-4-4-4-4-4-4-4-4-4-4----
Bb -2----2-2-2-2-2-2-2-2-2-2-2-2-3--
F  -2----2-2-2-2-2-2-2-2-2-2-2-2-3-- EVANGELIKUM
C  -0----0-0-0-0-0-0-0-0-0-0-0-0-1--

C  ------
G  ------
Eb ------
Bb -3-2--
F  -3-2--
C  -1-0--

  Visit MetalTabs.com for more metal tablature

bottom separator

Contact Us | Privacy Policy | Disclaimer | Legal Notice
Copyright © 2001-2014 MetalTabs.com. All Rights Reserved.