top separator

Home

Forum

What's New

Submit a Tab

FAQ

Links

Contact Us

Link to Us

MetalTabs.com logo

Bands

0-9

A

B

C

D

E

F

G

H

I

J

K

L

M

N

O

P

Q

R

S

T

U

V

W

X

Y

Z

Search

What

Where
 

Antaeus - "Intro / Intravenal Call" Guitar Tab

Plain Text Version
More Antaeus Tabs

Hits: 1333
Rated: 4.43 out of 5 (7 votes)
Updated: 2010-03-09 17:08:35

 

By:

Wolfsherz

sendpm.gif

email.gif

Important note
This tab is available online because we obtained explicit permission from Antaeus or their label.


#----------------------------------PLEASE NOTE---------------------------------#
#This file is the author's own work and represents their interpretation of the #
#song. You may only use this file for private study, scholarship, or research. #
#Unless specified otherwise, this is NOT an official tab from the band members.#
#------------------------------------------------------------------------------#

  Visit MetalTabs.com for more metal tablature
  
Band:AntaeuS
Album: De Principii Evangelikum
Song: Intravenal Call

Copyright (c) Osmose 2002

Transcribed By: Jens Cautereels
Email: cautereels.jens@gmail.com

* = palmmuting

Tuning C F Bb Eb G C

C  -------------------------------
G  -------------------------------
Eb -------------------------------
Bb -12/----4547-------------------
F  -12/----4547-6666666677777777--
C  -12/----2325-7777777788888888--
           ****
C  ----
G  ----
Eb -9--
Bb -9--
F  -7--
C  ----

C  -------------------------------------------------------------------
G  -------------------------------------------------------------------
Eb -999999999999----999999999999----999999999999----99999999----------
Bb -9999999999997777999999999999776699999999999977779999999955555555--
F  -7777777777777777777777777777776677777777777777777777777777777777--
C  -------------5555------------5544------------5555------------------
   For I know...    My Redeemer lives
C  --------------------------------------------------------------
G  --------------------------------------------------------------
Eb --------------------------------------------------------------
Bb -55555555-8-7-66666666-8-7-5-4-55555555-8-7-8-7-5-4-6-7-8-10--
F  -77777777-8-7-88888888-8-7-5-4-77777777-8-7-8-7-5-4-6-7-8-10--
C  ----------6-5----------6-5-3-2----------6-5-6-5-3-2-6-5-6-8---
             * *          * * * *          * * * * * * * * * *
C  --------------------------------------------------------------
G  --------------------------------------------------------------
Eb ------------------------------------------------------5553/6--
Bb -2222222222223/6-22222222333666-2222222222223/6-5552225553/6--
F  -2222222222223/6-22222222333666-2222222222223/6-5552223331/4--
C  -0000000000001/4-00000000111444-0000000000001/4-333000--------
   Without my Flesh, I shall see Him
C  --------------------------------------------------------------
G  --------------------------------------------------------------
Eb --------------------------------------------------------------
Bb -55555555-8-7-66666666-8-7-5-4-55555555-8-7-8-7-5-4-6-7-8-10--
F  -77777777-8-7-88888888-8-7-5-4-77777777-8-7-8-7-5-4-6-7-8-10--
C  ----------6-5----------6-5-3-2----------6-5-6-5-3-2-6-5-6-8---
             * *          * * * *          * * * * * * * * * *
C  --------------------------------------------------------------
G  --------------------------------------------------------------
Eb ------------------------------------------------------5553/6--
Bb -2222222222223/6-22222222333666-2222222222223/6-5552225553/6--
F  -2222222222223/6-22222222333666-2222222222223/6-5552223331/4--
C  -0000000000001/4-00000000111444-0000000000001/4-333000--------
   I shall see him
C  -----------------------------------------
G  -----------------------------------------
Eb -----------------------------------------
Bb -7-10-9-10-7-10-9-10-7-10-9-10-7-9-10-9--
F  -7-8--7-10-7-8--7-10-7-8--7-10-5-7-8--7--
C  -5------8--5------8--5------8------------

C  -------------------------------------------------------------------
G  -------------------------------------------------------------------
Eb -999999999999----999999999999----999999999999----99999999----------
Bb -9999999999997777999999999999776699999999999977779999999955555555--
F  -7777777777777777777777777777776677777777777777777777777777777777--
C  -------------5555------------5544------------5555------------------

C  --------------------------------------------------------------
G  --------------------------------------------------------------
Eb --------------------------------------------------------------
Bb -55555555-8-7-66666666-8-7-5-4-55555555-8-7-8-7-5-4-6-7-8-10--
F  -77777777-8-7-88888888-8-7-5-4-77777777-8-7-8-7-5-4-6-7-8-10--
C  ----------6-5----------6-5-3-2----------6-5-6-5-3-2-6-5-6-8---
             * *          * * * *          * * * * * * * * * *

C  --------------------------------------------------------------
G  --------------------------------------------------------------
Eb ------------------------------------------------------5553/6--
Bb -2222222222223/6-22222222333666-2222222222223/6-5552225553/6--
F  -2222222222223/6-22222222333666-2222222222223/6-5552223331/4--
C  -0000000000001/4-00000000111444-0000000000001/4-333000--------
   Another Son upon the Altar
C  -----------------------------------------
G  -----------------------------------------
Eb -----------------------------------------
Bb -7-10-9-10-7-10-9-10-7-10-9-10-7-9-10-9--
F  -7-8--7-10-7-8--7-10-7-8--7-10-5-7-8--7--
C  -5------8--5------8--5------8------------

  Visit MetalTabs.com for more metal tablature

bottom separator

Contact Us | Privacy Policy | Disclaimer | Legal Notice
Copyright © 2001-2014 MetalTabs.com. All Rights Reserved.