top separator

Home

Forum

What's New

Submit a Tab

FAQ

Links

Contact Us

Link to Us

MuSpy.com

MetalTabs.com logo

Bands

0-9

A

B

C

D

E

F

G

H

I

J

K

L

M

N

O

P

Q

R

S

T

U

V

W

X

Y

Z

Search

What

Where
 

Antaeus - "Nave X Kathedral" Guitar Tab

Plain Text Version
More Antaeus Tabs

Hits: 1085
Rated: 4.83 out of 5 (6 votes)
Updated: 2010-03-09 17:08:21

 

By:

Wolfsherz

sendpm.gif

email.gif

Important note
This tab is available online because we obtained explicit permission from Antaeus or their label.


#----------------------------------PLEASE NOTE---------------------------------#
#This file is the author's own work and represents their interpretation of the #
#song. You may only use this file for private study, scholarship, or research. #
#Unless specified otherwise, this is NOT an official tab from the band members.#
#------------------------------------------------------------------------------#

  Visit MetalTabs.com for more metal tablature
  
Band:AntaeuS
Album: De Principii Evangeliku¨
Song: Nave X Kathedral

Copyright (c) Osmose 2002

Transcribed By: Jens Cautereels
Email: cautereels.jens@gmail.com

Tuning C F Bb Eb G C

Guitar 1:
C  ------------------------------------------------------------------
G  ---------55555555--------4444------------55555555--------66666666-
Eb -4444444444444444333333333333333344444444444444445555555555555555-
Bb -2222222222222222111111111111111122222222222222223333333333333333-
F  ------------------------------------------------------------------
C  ------------------------------------------------------------------
Guitar 2:
C  ------------------------------------------------------------------
G  ------------------------------------------------------------------
Eb ------------------------------------------------------------------
Bb -2222222222222222111111111111111122222222222222223333333333333333-
F  -2222222222222222111111111111111122222222222222223333333333333333-
C  -0000000000000000000000000000000000000000000000001111111111111111-

C  ----------------
G  ----------------
Eb ----656----878--
Bb -53-656-53-878--
F  -53-434-53-656--
C  -31-----31------

C  ---------------------
G  ---------------------
Eb -2277-2277-22779988--
Bb -0055-0055-00557766--
F  ---------------------
C  ---------------------

C  ----------------
G  ----------------
Eb ----656----878--
Bb -53-656-53-878--
F  -53-434-53-656--
C  -31-----31------

C  ---------------------
G  ---------------------
Eb -2277-2277-22779988--
Bb -0055-0055-00557766--
F  ---------------------
C  ---------------------
Body - mind - soul
C  ---------------------
G  ---------------------
Eb -2----3----2----3----
Bb -2----3----2----3----
F  -0----1----0----1----
C  ---------------------

               x3
C  --------------|---------------
G  --------------|---------------
Eb -222222333333-|-222222--------
Bb -222222333333-|-222222555555--
F  -000000111111-|-000000777777--
C  --------------|---------------
Restrukturation of one
                of Him

C  -----------------------------------
G  -----------------------------------
Eb -2222----2222----2222--------------
Bb -22228888222288882222888855555555--
F  -00008888000088880000888877777777--
C  -----6666----6666----6666----------
For we are Architekz of the X Nave
               x3
C  --------------|---------------
G  --------------|---------------
Eb -222222333333-|-222222--------
Bb -222222333333-|-222222555555--
F  -000000111111-|-000000777777--
C  --------------|---------------
Kathedral

C  ---------------------
G  ---------------------
Eb -2277-2277-22779988--
Bb -0055-0055-00557766--
F  ---------------------
C  ---------------------

C  ----------------
G  ----------------
Eb ----656----878--
Bb -53-656-53-878--
F  -53-434-53-656--
C  -31-----31------

Guitar 1:
C  ------------------------------------------------------------------
G  ---------55555555--------4444------------55555555--------66666666-
Eb -4444444444444444333333333333333344444444444444445555555555555555-
Bb -2222222222222222111111111111111122222222222222223333333333333333-
F  ------------------------------------------------------------------
C  ------------------------------------------------------------------
Guitar 2:                    Restrukturate
C  ------------------------------------------------------------------
G  ------------------------------------------------------------------
Eb ------------------------------------------------------------------
Bb -2222222222222222111111111111111122222222222222223333333333333333-
F  -2222222222222222111111111111111122222222222222223333333333333333-
C  -0000000000000000000000000000000000000000000000001111111111111111-
                             Konvert 666
C  ----------------
G  ----------------
Eb ----656----878--
Bb -53-656-53-878--
F  -53-434-53-656--
C  -31-----31------

C  ------
G  ------
Eb ------
Bb -5----
F  -5----
C  -3----

  Visit MetalTabs.com for more metal tablature

bottom separator

Contact Us | Privacy Policy | Disclaimer | Legal Notice
Copyright © 2001-2014 MetalTabs.com. All Rights Reserved.