top separator

Home

Forum

What's New

Submit a Tab

FAQ

Links

Contact Us

Link to Us

MetalTabs.com logo

Bands

0-9

A

B

C

D

E

F

G

H

I

J

K

L

M

N

O

P

Q

R

S

T

U

V

W

X

Y

Z

Search

What

Where
 

My Dying Bride - "L'Amour Detruit" Bass Tab

Plain Text Version
More My Dying Bride Tabs

Hits: 1056
Updated: 2010-02-07 17:50:48

 

By:

Paddy

sendpm.gif

email.gif

Important note
This tab is available online because we obtained explicit permission from My Dying Bride or their label.


#----------------------------------PLEASE NOTE---------------------------------#
#This file is the author's own work and represents their interpretation of the #
#song. You may only use this file for private study, scholarship, or research. #
#Unless specified otherwise, this is NOT an official tab from the band members.#
#------------------------------------------------------------------------------#

  Visit MetalTabs.com for more metal tablature
  
================================================================================
                           M Y   D Y I N G   B R I D E

                                        -

                          L ' A M O U R   D E T R U I T
================================================================================


                            A LINE OF DEATHLESS KINGS
                          (c) Peaceville Records - 2006
                           http://www.mydyingbride.org/


                             Tune Down  1 & 1/2 Steps
                                   G# C# F# B E

                                  Tempo = 96 BPM
                               Time Signature = 4/4



                          -----------------------------
                                  Transcribed by

                                  PADDY MCMULLAN
                            stinkypoohpants@yahoo.co.uk

                                   Version 1.0
                                29th December 2009
                             -----------------------

                             Tablature Symbols Used:


 p         -  Pull-Off
 h         -  Hammer-On
 \         -  Slide Down to/Down From
 /         -  Slide Up To/Up From
 ( / )     -  Legato Slide
 ( )       -  Ghost Note/Tied Note/Implied Note
 REST      -  Rest and sustain rest for duration of blank space
 |_3_|     -  Triplet Notes
 |__[1,2]  -  Alternative Endings



================================================================================
Rest for 5 bars
================================================================================

================================================================================
Section 1: Play once
================================================================================


||-----------------------|-----------------------|---------------------|
||--R-      -------------|-----------------------|---------------------|
||--E-      -------------|-----------------------|---------------------|
||--S-      -(2/3)--3----|--(3/5)--5----5--------|--(5)------1--1------|
||--T-      -------------|-----------------------|---------------------|


|-------------------|--------------------|-----------------------|
|-------------------|--------------------|-----------------------|
|-------------------|--------------------|-----------------------|
|--0----------------|--(0)------3--------|--(3/5)--5----5--------|
|-------------------|--------------------|-----------------------|


|---------------------|-------------------|---------------------|
|---------------------|-------------------|---------------------|
|---------------------|-------------------|---------------------|
|--(5)------1--1------|--0----------------|--(0)------3----3----|
|---------------------|-------------------|---------------------|


|-----------------------|---------------------||
|-----------------------|---------------------||
|-----------------------|---------------------||
|--(3/5)--5----5--------|--(5)------1--1------||
|-----------------------|---------------------||



================================================================================
Section 2: Play twice
================================================================================


||---------------------|---------------------|------------------------|
||---------------------|---------------------|------------------------|
||---------------------|---------------------|------------------------|
||--0---------------0--|--0--------3----3----|--(3/5)--5----5------5--|
||---------------------|---------------------|------------------------|


|-----------------------|---------------------|---------------------|
|-----------------------|---------------------|---------------------|
|-----------------------|---------------------|---------------------|
|--5--5-------1--1------|--0---------------0--|--0--------3----3----|
|-----------------------|---------------------|---------------------|


|------------------------|-----------------------| |
|------------------------|-----------------------| |
|------------------------|-----------------------|*|
|--(3/5)--5----5------5--|--5--5-------8--7------|*|
|------------------------|-----------------------| |



================================================================================
Section 3: Play 4 times
================================================================================


||-----------------------------|------------------------------|
||-----------------------------|------------------------------|
||-----------------------------|------------------------------|
||--12----12--12--12----12--0--|--10--10----10--10----10------|
||-----------------------------|--------------------------10--|


|------------------------|--------------------------| |
|------------------------|--------------------------| |
|------------------------|--9--10-----9  \  7--7----|*|
|--8--8----8--8----8--0--|--------------------------|*|
|------------------------|--------------------------| |



================================================================================
Repeat Section 2
================================================================================

================================================================================
Repeat Section 3, ending on the following note
================================================================================


||-------------------||
||-------------------||
||-------------------||
||-------------------||
||--6----------------||



Hold and fade out over the course of 2 bars, and rest for a further 9



================================================================================
Section 4: Play 4 times [ Tempo = 110 BPM ]
================================================================================


                         |_3_|  |_3_|   |___3____|
||--------------------|-------------------------------|
||--------------------|-------------------------------|
||--9--------9--------|--8------8   \   5--------5----|
||--------------------|-------------------------------|
||--------------------|-------------------------------|

   |__3_|  |__3_|              |_3_|  |_3__|  |___3____|
|---------------------------|-------------------------------| |
|-------8-------------------|-------------------------------| |
|--6-------6----6--6--------|--8------8----8--9--------9----|*|
|---------------------------|-------------------------------|*|
|---------------------------|-------------------------------| |



================================================================================
Section 5: Play twice [ Tempo = 121 BPM ]
================================================================================


    |_3__|  |__3__|  |__3__|  |__3__|
||-------------------------------------|
||-------------------------------------|
||--6----6--6--6--6--6--6--6--6--6--6--|
||-------------------------------------|
||-------------------------------------|

   |__3__|  |__3__|  |__3__|  |__3__|
|--------------------------------------|
|--------------------------------------|
|--6--6--6--6--6--6--------------------|
|--------------------7--7--7--7--7--7--|
|--------------------------------------|

   |__3__|  |__3__|  |__3__|  |__3__|
|--------------------------------------|
|--------------------------------------|
|--------------------------------------|
|--5--5--5--5--5--5--5--5--5--5--5--5--|
|--------------------------------------|

   |__3__|  |__3__|  |__3__|  |__3__|
|--------------------------------------| |
|--------------------------------------| |
|--3--3--3--3--3--3--------------------|*|
|--------------------2--2--2--2--2--2--|*|
|--------------------------------------| |



================================================================================
Repeat Section 4 [ Tempo = 110 BPM ]
================================================================================

================================================================================
Repeat Section 5 [ Tempo = 121 BPM ]
================================================================================

================================================================================
Repeat Section 4 [ Tempo = 110 BPM ]
================================================================================

================================================================================
Repeat Section 5 with the following variations [ Tempo = 121 BPM ]
================================================================================


   | __3__|  |__3__|  |__3__|  |__3__|
||--------------------------------------|
||--------------------------------------|
||--6--6--6--6--6--6--7--6--6--6--6--6--|
||--------------------------------------|
||--------------------------------------|

   |__3_|  |__3__|  |__3_|  |__3__|
|------------------------------------|
|------------------------------------|
|--6----6--6--6--6-------------------|
|-------------------7----7--7--7--7--|
|------------------------------------|

                                          |__3__|  |__3__|
   |__3__|  |__3__|  |__3__|  |__3__|  |___________________________[1,2,3]
|--------------------------------------|-------------------------------| |
|--------------------------------------|-------------------------------| |
|--------------------------------------|--3--3--3--3--3--3-------------|*|
|--5--5--5--5--5--5--5--5--5--5--5--5--|--------------------2b3r2b3r2--|*|
|--------------------------------------|-------------------------------| |


   |__3__|  |__3__|  |__3__|  |__3__|
|_____________________________________[4]
|--------------------------------------||
|--------------------------------------||
|--3--3--3--3--3--3--------------------||
|--------------------2--2--2--2--2--2--||
|--------------------------------------||



Repeat the last bar twice



================================================================================
Repeat Section 1 thirteen times [ Tempo = 96 BPM ]
================================================================================

================================================================================
End
================================================================================


Tab summary:        Section 1 x 1
                    Section 2 x 2
                    Section 3 x 4
                    Section 2 x 2
                    Section 3 x 4
                    Section 4 x 4
                    Section 5 x 2
                    Section 4 x 4
                    Section 5 x 2
                    Section 4 x 4
                    Section 5 x 2
                    Section 1 x 13

                    END

  Visit MetalTabs.com for more metal tablature

bottom separator

Contact Us | Privacy Policy | Disclaimer | Legal Notice
Copyright © 2001-2014 MetalTabs.com. All Rights Reserved.