top separator

Home

Forum

What's New

Submit a Tab

FAQ

Links

Contact Us

Link to Us

MuSpy.com

MetalTabs.com logo

Bands

0-9

A

B

C

D

E

F

G

H

I

J

K

L

M

N

O

P

Q

R

S

T

U

V

W

X

Y

Z

Search

What

Where
 

Inquisition (CO) - "Summoned By Ancient Wizards Under A Black Moon" Guitar Tab

Plain Text Version
More Inquisition (CO) Tabs

Hits: 947
Updated: 2010-01-17 14:53:36

 

By:

WithinTheStorm

sendpm.gif

email.gif

Important note
We did our best to reach Inquisition (CO) and ask for their permission to publish this tab. Unfortunately they did not respond to our requests or we could not find a way to contact them. This tab is available online until Inquisition (CO) tells us to take it down.


#----------------------------------PLEASE NOTE---------------------------------#
#This file is the author's own work and represents their interpretation of the #
#song. You may only use this file for private study, scholarship, or research. #
#Unless specified otherwise, this is NOT an official tab from the band members.#
#------------------------------------------------------------------------------#

  Visit MetalTabs.com for more metal tablature
  
Song: Summoned by Ancient Wizards Under a Black Moon
Band: Inquisition
Album: Into the Infernal Regions of the Ancient Cult

All music composed, written and performed by Inquisition
Current Label: No Colours Records
Label when recorded/released: Sylphorium Records

http://www.metal-archives.com/band.php?id=6665

Song rendition by C.

any comments/questions: riteofvengeance@hotmail.com

Notes: This was rushed, but it is entirely correct as heard by my ear.
Any parts missing will be simple enough to fill in yourself.

COPYRIGHT/CREDIT TO Sylphorium Records


intro (0:00-0:25)

D|------------------------------------------------------------------------
A|------0-------0---------0-------0----------0-------0---------0----------
F|----4-------5---------4-------2---2------4-------5---------4------------
C|-----------------------------------------------------------------5--5---
G|-2-------2---------2-------2---------2--------2---------2--------5--5---
D|-0-------0---------0-------0---------0--------0---------0--------3003---


(0:28)
D|----0------------0------------0---------1-3------------
A|----0------------0------------0---------"-"------------
F|----0------------0------------0---------"-"------------
C|----------------------------------------3-5------------
G|-2-----5--3---2-----5--3---2-----5--3---3-5-5--3-------
D|-0-----3001---0-----3001---0-----3001---1-3-3001-------

(0:52)
D|----0-------------------------------------------------
A|----0-------------------------------------------------
F|----4------5------------------------------------------
C|-2-------3---3^---------------------------------------
G|-2-----3----------------------------------------------
D|-0----------------------------------------------------

(1:18)
D|--------------0---------
A|------------3---3-------
F|--------5---------5-----
C|-2----3---5---------3--2
G|-2---------------------2
D|-0---------------------0

(1:45)
D|--------------------------------------------------------
A|-------------0-----------0-----------2------------------
F|-------------2-----5-----2-----5-----0------------------
C|-5--------2-----2--3--2-----2--3--2---------------------
G|-3---5-3--2-----2-----2-----2-----2---------------------
D|-----3-1--0-----0-----0-----0-----0---------------------

(3:47)
D|-0-----------0-----------0------------0-----------0---------0-0---
A|-0-----------0-----------0------------0-------0-3-------0-3---0---
F|-5-----------5-----------5------------5-----5---------5-------5---
C|----2-----------2-----------2------------5---------4--------------
G|----2---22------2---22------2---22-------3---------2--------------
D|----0---00------0---00------0---00--------------------------------


(4:23)
D|-------0------------1------------0------------1------------
A|-----1---1--------1---1--------1---1--------1---1----------
F|---2-------2----2-------2----2-------2----2------2---------
C|-2------------2------------2------------2------------------
G|-0------------0------------0------------0------------------
D|-----------------------------------------------------------


(4:37)
D|----3---------3---------6---------1-----------------------------
A|------3---------3---------6---------1---------------------------
F|-5------5---------3---------6---------1-------------------------
C|-5---------5---------8---------3--------------------------------
G|-3---------5---------8---------3--------------------------------
D|-----------3---------6---------1--------------------------------


(6:21)
D|-------0------------1------------0----------------------------
A|-----3---3--------3---3--------3---3--------------------------
F|---2-------2----2-------2----2-------2------------------------
C|-2------------2------------2------------2---------------------
G|-0------------0------------0------------0--6-6----------------
D|-------------------------------------------4-4----------------



D|-------0------------1------------0-------------------------
A|-----3---3--------3---3--------3---3-----------------------
F|---2-------2----2-------2----2-------2---------------------
C|-2------------2------------2------------2------------------
G|-0------------0------------0------------0--3-3-------------
D|-------------------------------------------1-1-------------


(7:25)
D|---------------------------
A|---------------------------
F|---------------------------
C|---------------------------
G|-7--6--7--3--7--6--7--8----
D|-5--4--5--1--5--4--5--6----

(8:03)
D|-------------------------------------------------------------------0--
A|-----------------------------------------------------------------6----
F|--9-9-9-7-9-9-9-10-9-9-9-7-9-9-9-10-9-9-9-7-9-9-9-10-9-9-9-7---7------
C|--7-7-7-5-7-7-7-8--7-7-7-5-7-7-7-8--7-7-7-5-7-7-7-8--7-7-7-5-7--------
G|--0-0-0---0-0-0----0-0-0---0-0-0----0-0-0---0-0-0----0-0-0---5--------
D|----------------------------------------------------------------------

COPYRIGHT/CREDIT TO Sylphorium Records

  Visit MetalTabs.com for more metal tablature

bottom separator

Contact Us | Privacy Policy | Disclaimer | Legal Notice
Copyright © 2001-2014 MetalTabs.com. All Rights Reserved.