top separator

Home

Forum

What's New

Submit a Tab

FAQ

Links

Contact Us

Link to Us

MetalTabs.com logo

Bands

0-9

A

B

C

D

E

F

G

H

I

J

K

L

M

N

O

P

Q

R

S

T

U

V

W

X

Y

Z

Search

What

Where
 

Secrets of the Moon - "Bleakstar" Guitar Tab

Plain Text Version
More Secrets of the Moon Tabs

Hits: 1474
Rated: 5.00 out of 5 (11 votes)
Updated: 2009-11-30 14:28:13

 

By:

Wolfsherz

sendpm.gif

email.gif

Important note
This tab is available online because we obtained explicit permission from Secrets of the Moon or their label.


#----------------------------------PLEASE NOTE---------------------------------#
#This file is the author's own work and represents their interpretation of the #
#song. You may only use this file for private study, scholarship, or research. #
#Unless specified otherwise, this is NOT an official tab from the band members.#
#------------------------------------------------------------------------------#

  Visit MetalTabs.com for more metal tablature
  
Band: Secrets of the Moon
Album: The Exhibitions
Song: Bleakstar

Copyright (c) Lupus Lounge 2005

Transcribed By: Jens Cautereels
Email: cautereels.jens@gmail.com

Tuning DGCFAD

D ------
A ------
F ------
C -2--3-
G -2--3-
D -0--1- x4


D ----------------------------------------------------------------
A -8--9-/-------8--9-/----------8--9-/-------8--9-/---------------
F -9--10/-------9--10/----------9--10/-------9--10/---------------
C -9--10/-------9--10/----------9--10/-------9--10/--2-3-2-3-2-3--
G -7--8-/-------7--8-/----------7--8-/-------7--8-/--2-3-2-3-2-3--
D --------0560---------0560560---------0560----------0-1-0-1-0-1--
                                                     * * * * * *
                                                      palm mute

D -----------------------------------------------------------
A -8--9-/-----8--9-/-------8--9-/----8--9-/------8-9-/-------
F -9--10/-----9--10/-------9--10/----9--10/------9-10/-------
C -9--10/-----9--10/-------9--10/----9--10/------9-10/-------
G -7--8-/-----7--8-/-------7--8-/----7--8-/------7-8-/-------
D -------0560-------0560560------0560------056056------0560--
cont:
D -------------------------------------------------------
A -8--9-/-----8--9-/-------8--9-/----8--9-/--------------
F -9--10/-----9--10/-------9--10/----9--10/--------------
C -9--10/-----9--10/-------9--10/----9--10/-2-3-2-3-2-3--
G -7--8-/-----7--8-/-------7--8-/----7--8-/-2-3-2-3-2-3--
D -------0560-------0560560------0560-------0-1-0-1-0-1-- x2
                                            * * * * * *

D --------
A --------
F --------
C -2----2-
G -2----2-
D -0----0- x2


D ---------------------------------------66667777-7/--
A -----------------------------------9999-------------
F -------9999------------8888----6666-----------------
C -----------666688889999----6666---------------------
G ---7777---------------------------------------------
D -0--------------------------------------------------

D ---------------------------------------------------66667777-7/-
A -----------------------------------------------9999------------
F -------9999------------8888----66668888----6666----------------
C -----------666688889999----6666--------6666--------------------
G ---7777--------------------------------------------------------
D -0-------------------------------------------------------------

D ---------------------------------------66667777-7/--
A -----------------------------------9999-------------
F -------9999------------8888----6666-----------------
C -----------666688889999----6666---------------------
G ---7777---------------------------------------------
D -0--------------------------------------------------
                                        x5
D ---------------------------|------------|------------66667777-7/-
A ---------------------------|------------|--------9999------------
F -------9999------------8888|----66668888|----6666----------------
C -----------666688889999----|6666--------|6666--------------------
G ---7777--------------------|------------|------------------------
D -0-------------------------|------------|------------------------

                  V=slight vibrato
D -------------------------------------
A ----------------V--------V--------V--
F -------9--8-----6--------4--------3--
C -2--------8--6-----6--6-----4--4-----
G -2--7-----6--------6--------4--------
D -0-----------------4--------2-------- x2

D ---------------------------------------66667777-7/--
A -----------------------------------9999-------------
F -------9999------------8888----6666-----------------
C -----------666688889999----6666---------------------
G ---7777---------------------------------------------
D -0--------------------------------------------------
The Star - is here - speaking - in triads
D -------------------------------------
A ----------------V--------V--------V-- 2nd guitar
F -------9--8-----6--------4--------3-- only plays
C -2--------8--6-----6--6-----4--4----- powerchords
G -2--7-----6--------6--------4--------
D -0-----------------4--------2-------- x2

        ^=bend
D -----------------------
A ------7^---------------
F ------8^---------------
C -2----8^-----6----4----
G -2----6^-----6----4----
D -0-----------4----2---- x2

D ------------------------
A -------7^---------------
F -------8^---------------
C -2--2--8^-----6----4----
G -2--2--6^-----6----4----
D -0--0---------4----2---- x2
      * palm mute


D ------
A ------
F ------
C -2----
G -2----
D -0---- x6


D -----------------------
A -----------------------
F -------8----------7----
C -------8----------7----
G -------6----------5----
D -00000------00000------ x3
   *****      *****

D -----------------------------------
A -----------------------------------
F -------------8----------------7----
C -------------8----------------7----
G -------------6----------------5----
D -00000-00000------00000-00000------ x3

D -----------------------
A -----------------------
F -------8----------7----
C -------8----------7----
G -------6----------5----
D -00000------00000------ x3
   *****      *****

D --------------
A --------------
F --------------
C -2-5-6-2-5-6--
G -2-5-6-2-5-6--
D -0-3-4-0-3-4--
   * * * * *
Repeat last sequence

D ------------------------------------------------------------
A ------------------------------------------------------------
F ------------------------------------------------------------
C -4------5------4--------------4------5------4---------------
G -4--2-4-5--5-2-4--------------4--2-4-5--5-2-4--6-6-6-6-6-6--
D -2--0-2-3--3-0-2--00000-00000-2--0-2-3--3-0-2--4-4-4-4-4-4-- x4
                    ***** *****                 |           |
                                               natural harmonics
D -----------------------------
A -7-5-7-8--7-5-7--------------
F -6-4-6-7--6-4-6--------------
C -4-2-4-5--4-2-4--------------
G -----------------------------
D ----------------00000000000-- x4

D ------------------------------------------------------------
A ------------------------------------------------------------
F ------------------------------------------------------------
C -4------5------4--------------4------5------4---------------
G -4--2-4-5--5-2-4--------------4--2-4-5--5-2-4--6-6-6-6-6-6--
D -2--0-2-3--3-0-2--00000-00000-2--0-2-3--3-0-2--4-4-4-4-4-4-- x2
                    ***** *****                 |           |
                                               natural harmonics
D -----------------------------
A -7-5-7-8--7-5-7--------------
F -6-4-6-7--6-4-6--------------
C -4-2-4-5--4-2-4--------------
G -----------------------------
D ----------------00000000000-- x4

D -------
A -------
F -------
C -------
G -------
D -00000- x8
   *****

D -----------------------
A -----------------------
F -------8----------7----
C -------8----------7----
G -------6----------5----
D -00000------00000------ x3
   *****      *****

D -------
A -------
F -------
C -------
G -------
D -00000- x3
   *****

D ---------6----------5-----
A ----------6----------5----
F -------8----------7-------
C -------8----------7-------
G -------6----------5-------
D -00000------00000--------- x3
   *****      *****

D --------------
A --------------
F --------------
C -2-5-6-2-5-6--
G -2-5-6-2-5-6--
D -0-3-4-0-3-4--
   * * * * *

D ---------------------------------------66667777-7/--
A -----------------------------------9999-------------
F -------9999------------8888----6666-----------------
C -----------666688889999----6666---------------------
G ---7777---------------------------------------------
D -0--------------------------------------------------

D -------------------------------------
A ----------------V--------V--------V-- 2nd guitar
F -------9--8-----6--------4--------3-- only plays
C -2--------8--6-----6--6-----4--4----- powerchords
G -2--7-----6--------6--------4--------
D -0-----------------4--------2--------
Repeat last sequence 3 times

D ------------
A ------------
F ------------
C -2--------2-
G -2--------2-
D -0--------0-

  Visit MetalTabs.com for more metal tablature

bottom separator

Contact Us | Privacy Policy | Disclaimer | Legal Notice
Copyright © 2001-2014 MetalTabs.com. All Rights Reserved.