top separator

Home

Forum

What's New

Submit a Tab

FAQ

Links

Contact Us

Link to Us

MuSpy.com

MetalTabs.com logo

Bands

0-9

A

B

C

D

E

F

G

H

I

J

K

L

M

N

O

P

Q

R

S

T

U

V

W

X

Y

Z

Search

What

Where
 

Bethlehem - "Gestern Starb Ich Schon Heute" Guitar Tab

Plain Text Version
More Bethlehem Tabs

Hits: 1887
Rated: 5.00 out of 5 (2 votes)
Updated: 2009-11-30 14:28:04

 

By:

Ludool

sendpm.gif

email.gif

Important note
We did our best to reach Bethlehem and ask for their permission to publish this tab. Unfortunately they did not respond to our requests or we could not find a way to contact them. This tab is available online until Bethlehem tells us to take it down.


#----------------------------------PLEASE NOTE---------------------------------#
#This file is the author's own work and represents their interpretation of the #
#song. You may only use this file for private study, scholarship, or research. #
#Unless specified otherwise, this is NOT an official tab from the band members.#
#------------------------------------------------------------------------------#

  Visit MetalTabs.com for more metal tablature
  
Band:  Bethlehem
Album: Sardonischer Untergang im Zeichen irreligiöser Darbietung
Song:  Gestern Starb Ich Schön Heute

Copyright (c)  Red Stream 1998

Transcribed By: ludool
Email:          ludool@hotmail.fr


.  - palm mute
/  - slide up to
\  - slide down to
h  - hammer on
p  - pull off
x  - Stuccatto




Tuning D

Riff A
	Bass begins:
|-------------------------------------------------------------------|
|-------------------------------------------------------------------|
|-777----------------9999999999999666-------------------------------|
|----9999999999999555-----------------------------------------------|

	then guitar plays
|------------------------------------------------------------------------|
|------------------------------------------------------------------------|
|------------------------------------------------------------------------|
|-666----------------7777777777777777666----------------7777777777777777-|
|----7777777777777444-------------------7777777777777444-----------------|
|------------------------------------------------------------------------|

|------------------------------------------------------------------------|
|------------------------------------------------------------------------|
|------------------------------------------------------------------------|
|-666----------------6666555555554444666----------------6666555555554----|
|----7777777777777777-------------------7777777777777777-----------------|
|------------------------------------------------------------------------|

|------------------------------------------------------------------------|
|------------------------------------------------------------------------|
|------------------------------------------------------------------------|
|-666----------------7777777777777777666----------------7777777777779999-|
|----7777777777777444-------------------7777777777777444-----------------|
|------------------------------------------------------------------------|

|------------------------------------------------------------------------|
|------------------------------------------------------------------------|
|------------------------------------------------------------------------|
|-666----------------7777777777777777666----------------7777777777779999-|
|----7777777777777444-------------------7777777777777444-----------------|
|------------------------------------------------------------------------|

|---------|
|---------|
|---------|
|-666-----|
|----7----|
|---------|


Riff B
Gtr deep & clean (or bass of course)
|-------------------------------------------------------------------|
|-------------------------------------------------------------------|
|-------------------------------------------------------------------|x2
|-------------------------------------------------------------------|
|-9-12-9---------------7-4------9-12-9------------------------------|
|--------9-12-9--4-7-4-----------------9-12-9-7-11-765--------------|

|-------------------------------------------------------------------|
|-------------------------------------------------------------------|
|-------------------------------------------------------------------|
|-------------------------------------------------------------------|
|---------------------11--------------------------------------------|
|-5-9-5-7-11-7-9-12-9----9-12-5-9-5-7-11-7-4-7-4-0------------------|

|-------------------------------------------------------------------|
|-------------------------------------------------------------------|
|-------------------------------------------------------------------|
|-------------------------------------------------------------------|
|---------------------11-10-9------------------7-4------------------|
|-5-9-5-7-11-7-9-12-9---------5-9-5-7-11-7-0-4----------------------|


Solo
|-------------------------------------------------------------------|
|-------------------------------------------------------------------|
|-------------------------------------------------------------------|
|-7-----6-----7--9--6--6h7p6-----7-----6-----7--9--9/11-11----------|
|----9-----7----------------9-7-----9-----7-------------------------|
|-------------------------------------------------------------------|

|-------------------------------------------------------------------|
|-17--17-16-14-17-16-14-19-17-16-19-17-16-21-20-19-17-19-17-14------|
|-------------------------------------------------------------------|
|-------------------------------------------------------------------|
|-------------------------------------------------------------------|
|-------------------------------------------------------------------|

|-------------------------------------------------------------------|
|-14-17-19-19b--17-14-17-14----13-12--14-12--9----10-9-10-12-12/14--|
|-------------------------------------------------------------------|
|-------------------------------------------------------------------|
|-------------------------------------------------------------------|
|-------------------------------------------------------------------|

|-----------------------------------------------------17-19---17--------------|
|-12-11-12-14-14/16--14-16-17-14-16-17-19-16-17-19-21------------21-17-19-14--|
|-----------------------------------------------------------------------------|
|-----------------------------------------------------------------------------|
|-----------------------------------------------------------------------------|
|-----------------------------------------------------------------------------|


Riff C  (x2)
Gtr clean
|-------------------------------------------------------------------|
|-------------------------------------------------------------------|
|-9---9--9--9--9---9--9--9--9---9--9--9--8--8--8--6--6---6--6--6--6-|
|-10--10-10-10-10--10-10-10-10--10-10-10-9--9--9--7--7---7--7--7--7-|
|-10--10-10-10-10--10-10-10-10--10-10-10-9--9--9--7--7---7--7--7--7-|
|-9---9--9--9--9---9--9--9--9---9--9--9--7--7--7--5--5---5--5--5--5-|

|-------------------------------------------------------------------|
|-------------------------------------------------------------------|
|--6--6--6--6---6--6--7--8--8--8--9--9------------------------------|
|--7--7--7--7---7--7--7--9--9--9--10-10-----------------------------|
|--7--7--7--7---7--7--7--9--9--9--10-10-----------------------------|
|--5--5--5--5---5--5--5--7--7--7--9--9------------------------------|


Riff D
|-----------------------------------------------------------------------------|
|-----------------------------------------------------------------------------|
|-----------------------------------------------------------------------------|
|-----------------------------------------------------------------------------|
|-11-11-x-x-11-11-x-x-11-11-x-x-9-9-9-9-9\7-7--x-x-7-7-x-x-7-7-x-x-9-9-9-9-9\-|
|-9--9--x-x-9--9--x-x-9--9--x-x-7-7-7-7-7\5-5--x-x-5-5-x-x-5-5-x-x-7-7-7-7-7\-|


Riff E  (x2)
Gtr clean
|------------------------------------------------------------------------------|
|-------------------------------------------------------5----------------------|
|---------------------------------------8-------------6-----6--------6-------8-|
|------------11-------------11--------9---9---------7------7-------7-------9---|
|---------11----11-------11----11---9-------9-----7-------7------7-------9-----|
|-9--9-12----------12-9-----------7-----------5---------------5--------7-------|


END



Song structure:

Riff A
Riff B
Solo
Riff C  x2
Riff D  x2
Riff E  x2
Riff D  x4



I know Riff C is not exact but I can't hear what is the true one... anyway,
"my" Riff C sounds quite well.

As usual, let me know any comment, correction or if someone can tab the real
Riff C!

  Visit MetalTabs.com for more metal tablature

bottom separator

Contact Us | Privacy Policy | Disclaimer | Legal Notice
Copyright © 2001-2014 MetalTabs.com. All Rights Reserved.