top separator

Home

Forum

What's New

Submit a Tab

FAQ

Links

Contact Us

Link to Us

MetalTabs.com logo

Bands

0-9

A

B

C

D

E

F

G

H

I

J

K

L

M

N

O

P

Q

R

S

T

U

V

W

X

Y

Z

Search

What

Where
 

Mourning Beloveth - "Trace Decay" Bass Tab

Plain Text Version
More Mourning Beloveth Tabs

Hits: 958
Updated: 2009-11-03 17:41:40

 

By:

Paddy

sendpm.gif

email.gif

Important note
This tab is available online because we obtained explicit permission from Mourning Beloveth or their label.


#----------------------------------PLEASE NOTE---------------------------------#
#This file is the author's own work and represents their interpretation of the #
#song. You may only use this file for private study, scholarship, or research. #
#Unless specified otherwise, this is NOT an official tab from the band members.#
#------------------------------------------------------------------------------#

  Visit MetalTabs.com for more metal tablature
  
================================================================================
                       M O U R N I N G   B E L O V E T H

                                       -

                             T R A C E   D E A C Y
================================================================================


                              A DISEASE FOR THE AGES
                         (c) Prophecy Productions - 2008
                        http://www.mourningbeloveth.com/


                              Tune Down 1 & 1/2 Steps
                                     C# F# B E

                                  Tempo = 80 BPM
                               Time Signature = 4/4



                          -----------------------------
                                 Transcribed by

                                 PADDY MCMULLAN
                           stinkypoohpants@yahoo.co.uk

                                   Version 1.0
                             -----------------------

                             Tablature Symbols Used:


 p         -  Pull-Off
 h         -  Hammer-On
 (/)       -  Legato Slide (Blank space indicates length of slide)
 \         -  Slide Down to/Down From (Blank space indicates length of slide)
 /         -  Slide Up To/Up From (Blank space indicates length of slide)
 ( )       -  Ghost Note/Tied Note/Implied Note
 REST      -  Rest and sustain rest for duration of blank space
 |_3_|     -  Triplet notes



================================================================================
Section 1: Guitars 1 & 2 w/ Heavy Distortion (Play 7 times)
================================================================================


||--R-        -|-        -||----------------------|
||--E-        -|-        -||----------------------|
||--S-        -|-        -||----------------------|
||--T-        -|-        -||--6------6--6------6--|

                                               |_3_|
|-------------------------||-------------------------------|
|-------------------------||-------------------------------|
|-------------------------||--------------2----3p2-0--0h3--|
|--6--6--6----6--6--6--7--||--7-- \--0---------------------|

|-------------------------| |
|-------------------------|*|
|-(2)--2--2------2--3--0--|*|
|-------------------------| |



After the first time, ignore the rests



During this section the tempo gradually increases to 88 BPM



================================================================================
Section 2 - Part I: Play twice [ Tempo = 68 BPM ]
================================================================================


||-----------------------|----------------------|-----------------------|
||-----------------------|----------------------|-----------------------|
||-----------------------|----------------------|-----------------------|
||--7------7--7------7 \ |--3------3--3------3--|--2--3--2--------2-- / |


|-------------------| |
|-------------------|*|
|-------------------|*|
|--5----------------| |



================================================================================
Section 2 - Part II: Play twice [ Tempo = 80 BPM ]
================================================================================


||----------------------|--------------------|-----------------------|
||----------------------|--------------------|-----------------------|
||----------------------|--------------------|-----------------------|
||--7--------7------- \ |--3--------3--------|--2--3--2--------2-- / |


|-------------------| |
|-------------------|*|
|-------------------|*|
|--5----------------| |



================================================================================
Section 3: Play 4 times
================================================================================


||-------------------|-------------------||---------------------------|
||-------------------|-------------------||---------------------------|
||-------------------|-------------------||------2--2--3--3--0--0--2--|
||--0----------------|--0----------------||-(0)-----------------------|


|------------------------|----------------------|-------------------------|
|------------------------|----------------------|-------------------------|
|--2---------------------|--3------3--3------3--|--3----3--3--5---5---5 \ |
|---------3--2--0----0-0-|----------------------|-------------------------|


|----------------------|--------------------------|----------------------|
|----------------------|--------------------------|----------------------|
|--2------2--2------2--|--2--2 / 7--7--7---6---7--|--9------9--9------9--|
|----------------------|--------------------------|----------------------|


|--------------------------|----------------------|
|--------------------------|----------------------|
|--9-----------------------|----------------------|
|-----7--7--8--5--7--3--2--|--0------0--0------0--|


|--------------------------| |
|--------------------------|*|
|-----2--2--3--3--1--1--2--|*|
|--0-----------------------| |



After the first repeat replace the first two bars with the following:



||-------------------|--------------------------|
||-------------------|--------------------------|
||-------------------|-----2--2--3--3--0--0--2--|
||--0----------------|-(0)----------------------|



During this section the tempo gradually increases to 92 BPM



================================================================================
Section 4: Play 8 times [ Tempo = 68 BPM ]
================================================================================


||-----------------------|-----------------------|
||-----------------------|-----------------------|
||-----------------------|--3------3--3----3--5--|
||--0------0--0------0-0-|-----------------------|


|-----------------------|------------------------| |
|-----------------------|------------------------|*|
|-----------------------|------------------------|*|
|--3------3--3----3--5--|--7------5--7--5--3--2--| |



================================================================================
Play Section 1 seven times
================================================================================

================================================================================
Repeat Riff 2 - Part I four times, ending on the following:
================================================================================


||---------||
||---------||
||--7------||
||---------||



================================================================================
End
================================================================================


Tab summary:        Section 1 x 7
                    Section 2:
                              Part I x 2
                              Part II x 2
                    Section 3 x 4
                    Section 4 x 8
                    Section 1 x 7
                    Section 2 - Part I x 4
                    END

  Visit MetalTabs.com for more metal tablature

bottom separator

Contact Us | Privacy Policy | Disclaimer | Legal Notice
Copyright © 2001-2014 MetalTabs.com. All Rights Reserved.