top separator

Home

Forum

What's New

Submit a Tab

FAQ

Links

Contact Us

Link to Us

MuSpy.com

MetalTabs.com logo

Bands

0-9

A

B

C

D

E

F

G

H

I

J

K

L

M

N

O

P

Q

R

S

T

U

V

W

X

Y

Z

Search

What

Where
 

Inquisition (CO) - "Strike of the Morning Star" Guitar Tab

Plain Text Version
More Inquisition (CO) Tabs

Hits: 1879
Rated: 4.00 out of 5 (2 votes)
Updated: 2009-08-02 09:37:58

 

By:

Ludool

sendpm.gif

email.gif

Important note
We did our best to reach Inquisition (CO) and ask for their permission to publish this tab. Unfortunately they did not respond to our requests or we could not find a way to contact them. This tab is available online until Inquisition (CO) tells us to take it down.


#----------------------------------PLEASE NOTE---------------------------------#
#This file is the author's own work and represents their interpretation of the #
#song. You may only use this file for private study, scholarship, or research. #
#Unless specified otherwise, this is NOT an official tab from the band members.#
#------------------------------------------------------------------------------#

  Visit MetalTabs.com for more metal tablature
  
Band:  Inquisition
Album: Nefarious Dismal Orations
Song:  Strike Of The Morning Star

Copyright (c)  No Colours Records 2007
Version 1.0 - 07/14/09

Transcribed By: Ludool
Email:          ludool@hotmail.fr



Tuning D

Riff A
|-------------------------------------------------------------------|
|-------------------------------------------------------------------|
|-------------------------------------------------------------------|
|-------------------------------------------------------------------|
|--77777777877777777107777777787777101010105555---------------------|
|--555555556555555558-55555555655558-8-8-8-3333---------------------|

Riff B
|-------------------------------------------------------------------|
|-------------------------------------------------------------------|
|-------------------------------------------------------------------|
|--14-15-14-12-10-12-10-9-------------------------------------------|
|--12-13-12-10-8--10-8--7-7-7-7-7-----------------------------------|
|-------------------------5-5-5-5-----------------------------------|

Riff C
|-------------------------------------------------------------------|
|-------------------------------------------------------------------|
|-------------------------------------------------------------------|
|-------------------------------------------------------------------|
|----8-10-8-5-8-10-12--7----7---------------------------------------|
|----6-8--6-3-6-8--10--5----5---------------------------------------|

Riff D
|-------------------------------------------------------------------|
|-------------------------------------------------------------------|
|-------------------121212121212-----------------101010101010-------|
|-------------------101010101010-----------------8-8-8-8-8-8--------|
|--77777777877777777------------77777777877777777-------------------|
|--55555555655555555------------55555555655555555-------------------|

Riff E
|-------------------------------------------------------------------|
|-------------------------------------------------------------------|
|----------0------0-----------0------0------------------------------|
|------7-0-----7-0--------7-0-----7-0-------------------------------|
|--7----------7----5--7----------7----3-----------------------------|
|--5----------5----3--5----------5----1-----------------------------|

Riff F
|-------------------------------------------------------------------|
|-------------------------------------------------------------------|
|-------------------------------------------------------------------|
|-----------12-----------10-----------------------------------------|
|-7-7-7-7-7-10-7-7-7-7-7-8-7-7-7-7-7-10-7-7-7-7-7-5-----------------|
|-5-5-5-5-5----5-5-5-5-5---5-5-5-5-5-8--5-5-5-5-5-3-----------------|

Solo
|------------------------------------------------------------------------|
|------------------------------------------------------------------------|
|-9----------9---------------11-9~--9----------9-------------------------|
|-------------------------12---------------------------------12-11-12~---|
|---12-12-12--12-12-12-10-------------12-12-12---12-12-12-10-------------|
|------------------------------------------------------------------------|

|------------------------------------------------------------------------|
|------------------------------------------------------------------------|
|-9----------9---------------11-9~--9----------9----------------------9~-|
|-------------------------12---------------------------------12-11-12~---|
|---12-12-12--12-12-12-10-------------12-12-12---12-12-12-10-------------|
|------------------------------------------------------------------------|

END

Song structure:

Riff A
Riff B
Riff A
Riff C
Riff A
Riff C
Riff D
Riff C
Riff E
Riff F
Riff A
Riff C
Riff E  + solo


Comments and/or corrections are welcome.

  Visit MetalTabs.com for more metal tablature

bottom separator

Contact Us | Privacy Policy | Disclaimer | Legal Notice
Copyright © 2001-2014 MetalTabs.com. All Rights Reserved.