top separator

Home

Forum

What's New

Submit a Tab

FAQ

Links

Contact Us

Link to Us

MetalTabs.com logo

Bands

0-9

A

B

C

D

E

F

G

H

I

J

K

L

M

N

O

P

Q

R

S

T

U

V

W

X

Y

Z

Search

What

Where
 

Enthroned - "The Burning Dawn" Guitar Tab

Plain Text Version
More Enthroned Tabs

Hits: 1322
Rated: 4.00 out of 5 (5 votes)
Updated: 2009-05-31 06:06:42

 

By:

Wolfsherz

sendpm.gif

email.gif

Important note
This tab is available online because we obtained explicit permission from Enthroned or their label.


#----------------------------------PLEASE NOTE---------------------------------#
#This file is the author's own work and represents their interpretation of the #
#song. You may only use this file for private study, scholarship, or research. #
#Unless specified otherwise, this is NOT an official tab from the band members.#
#------------------------------------------------------------------------------#

  Visit MetalTabs.com for more metal tablature
  
Band: Enthroned
Album: Tetra Karcist
Song: The Burning Dawn

Copyright (c) Napalm Records 2007

Transcribed By: Jens Cautereels
Email: cautereels.jens@gmail.com

Tuning DGCFAD

D --------------------------------------------
A --------------------------------------------
F --------------------------------------------
C -222222225555555522222222554477777777-------
G -000000003333333300000000332255555555-------
D --------------------------------------------

D --------------------------------------------
A --------------------------------------------
F --------------------------------------------
C -22222222-4455778877-22222222-55555555------
G -00000000-2233556655-00000000-33333333------
D --------------------------------------------

D -------------------------------------------
A -------------------------------------------
F -------------------------------------------
C -777777777777777-55555555-33333333---------
G -777777777777777-55555555-33333333---------
D -555555555555555-33333333-11111111---------

Lead:
D --------------------------------------------
A --------------------------------------------
F -9999999999999999-77777777------------------
C ---------------------------101010109999-----
G --------------------------------------------
D --------------------------------------------

D --------------------------------------------
A -9999999999999999-77777777-101010109999-----
F --------------------------------------------
C --------------------------------------------
G --------------------------------------------
D --------------------------------------------

D --------------------------------------------
A --------------------------------------------
F --------------------------------------------
C -222222225555555522222222554477777777-------
G -000000003333333300000000332255555555-------
D --------------------------------------------

D -------------------------------------------
A -------------------------------------------
F -------------------------------------------
C -777777777777777-55555555-33333333---------
G -777777777777777-55555555-33333333---------
D -555555555555555-33333333-11111111---------

Lead:
D --------------------------------------------
A --------------------------------------------
F -9999999999999999-77777777------------------
C ---------------------------101010109999-----
G --------------------------------------------
D --------------------------------------------

D --------------------------------------------
A -9999999999999999-77777777-101010109999-----
F --------------------------------------------
C --------------------------------------------
G --------------------------------------------
D --------------------------------------------

D -------------------------------------------
A -------------------------------------------
F -------------------------------------------
C -777777777777777-55555555-33333333---------
G -777777777777777-55555555-33333333---------
D -555555555555555-33333333-11111111---------

D -----------
A -----------
F -7----6----
C -7----6----
G -5----4----
D -----------

D -----------------------------------
A -----------------------------------
F -----------------------------------
C -77777777777777776666666666666666--
G -55555555555555554444444444444444--
D -----------------------------------

D -------------------------
A -------------------------
F ---7---7---6-------------
C --7-7-7-7-6-6-6-7-6-2----
G -5---5---4----4-5-4-0----
D -------------------------

D --------------------------------------------
A --------------------------------------------
F --------------------------------------------
C -77777777777777776666666666-66776622--------
G -55555555555555554444444444-44554400--------
D -------------------------------------------

D ----
A ----
F ----
C -7--
G -5--
D ----

  Visit MetalTabs.com for more metal tablature

bottom separator

Contact Us | Privacy Policy | Disclaimer | Legal Notice
Copyright © 2001-2014 MetalTabs.com. All Rights Reserved.