top separator

Home

Forum

What's New

Submit a Tab

FAQ

Links

Contact Us

Link to Us

MuSpy.com

MetalTabs.com logo

Bands

0-9

A

B

C

D

E

F

G

H

I

J

K

L

M

N

O

P

Q

R

S

T

U

V

W

X

Y

Z

Search

What

Where
 

Enthroned - "Deviant Nerve Angelus" Guitar Tab

Plain Text Version
More Enthroned Tabs

Hits: 1279
Rated: 4.50 out of 5 (6 votes)
Updated: 2009-05-31 06:06:34

 

By:

Wolfsherz

sendpm.gif

email.gif

Important note
This tab is available online because we obtained explicit permission from Enthroned or their label.


#----------------------------------PLEASE NOTE---------------------------------#
#This file is the author's own work and represents their interpretation of the #
#song. You may only use this file for private study, scholarship, or research. #
#Unless specified otherwise, this is NOT an official tab from the band members.#
#------------------------------------------------------------------------------#

  Visit MetalTabs.com for more metal tablature
  
Band: Enthroned
Album: Tetra Karcist
Song: Deviant Nerve Angelus

Copyright (c) Napalm Records 2007

Transcribed By: Jens Cautereels
Email: cautereels.jens@gmail.com

Tuning DGCFAD

D ----------------------
A ----------------------
F -----9-------9----10--
C ---7-------7----7-----
G -0-------0------------
D ----------------------

D ----------------------
A ----------------------
F ----------------------
C -----9-------9----10--
G ---7-------7----7-----
D -0-------0------------

D ----------------------
A ----------------------
F -----9-------9----10--
C ---7-------7----7-----
G -0-------0------------
D ----------------------

D ---------------------------------------------------------
A ---------------------------------------------------------
F ---------9999999999999999--------9999771010101010101010--
C -----7777--------------------7777------------------------
G -0000--------------------0000----------------------------
D ---------------------------------------------------------

D -----------------------------------------------------
A -----------------------------------------------------
F -----------------------------------------------------
C -7777-1010-99-777777777777-1010-99-1010101010101010--
G -7777-1010-99-777777777777-1010-99-1010101010101010--
D -5555-8-8--77-555555555555-8-8--77-8-8-8-8-8-8-8-8---

D -------------------------
A -------------------------
F -9----9/8----9----9/8----
C -9----9/8----9----9/8----
G -7----7/6----7----7/6----
D -------------------------

  Visit MetalTabs.com for more metal tablature

bottom separator

Contact Us | Privacy Policy | Disclaimer | Legal Notice
Copyright © 2001-2014 MetalTabs.com. All Rights Reserved.