top separator

Home

Forum

What's New

Submit a Tab

FAQ

Links

Contact Us

Link to Us

MuSpy.com

MetalTabs.com logo

Bands

0-9

A

B

C

D

E

F

G

H

I

J

K

L

M

N

O

P

Q

R

S

T

U

V

W

X

Y

Z

Search

What

Where
 

Enthroned - "Through the Cortex" Guitar Tab

Plain Text Version
More Enthroned Tabs

Hits: 1384
Rated: 5.00 out of 5 (4 votes)
Updated: 2009-05-31 06:06:27

 

By:

Wolfsherz

sendpm.gif

email.gif

Important note
This tab is available online because we obtained explicit permission from Enthroned or their label.


#----------------------------------PLEASE NOTE---------------------------------#
#This file is the author's own work and represents their interpretation of the #
#song. You may only use this file for private study, scholarship, or research. #
#Unless specified otherwise, this is NOT an official tab from the band members.#
#------------------------------------------------------------------------------#

  Visit MetalTabs.com for more metal tablature
  
Band: Enthroned
Album: Tetra Karcist
Song: Through the Cortex

Copyright (c) Napalm Records 2007

Transcribed By: Jens Cautereels
Email: cautereels.jens@gmail.com

Tuning DGCFAD

D --------------------------------------------------
A --------------------------------------------------
F ---------33333333---------------3333333399999999--
C ---------33333333---------------3333333399999999--
G ---------11111111---------------1111111177777777--
D -00000000--------000000000000000------------------

D ------
A ------
F ------
C -2----
G -2----
D -0----

D -------------------------------------------
A -------------------------------------------
F -------------------------------------------
C -----9999----10101010----9999----12121212--
G -----7777----8-8-8-8-----7777----10101010--
D -0000----0000--------0000----0000----------

D ------------------------------|-------|---------
A ------------------------------|-------|---------
F ------9-----------------9-----|-5-4-7-|-9-10-9--
C ------9-----3-5-3-------9-----|-5-4-7-|-9-10-9--
G ------7-----3-5-3-------7-----|-3-2-5-|-7-8--7--
D -0-00---000-1-3-1-00-00---000-|-------|---------

D --------------------------------------|-------|---------
A --------------------------------------|-------|---------
F -----9999--------------------9999-----|-5-4-7-|-9-10-9--
C --------------------------------------|-5-4-7-|-9-10-9--
G -----7777----333355553333----7777-----|-3-2-5-|-7-8--7--
D -0000----00001111333311110000----0000-|-------|---------

D --------------------------------------------------
A --------------------------------------------------
F ---------33333333---------------3333333399999999--
C ---------33333333---------------3333333399999999--
G ---------11111111---------------1111111177777777--
D -00000000--------000000000000000------------------

D -----------------------------------
A -----------------------------------
F -----------------------------------
C ---------555555554444444411111111--
G ---------333333332222222222222222--
D -00000000--------------------------

D ------------------------------------
A ------------------------------------
F ------------------------------------
C ------------------------------------
G ------------------------------------
D -0000000011114444-0000000044441111--

D -----------------------------------------------
A -----------------------------------------------
F -9-999999-10-1010-8888--9-999999-12-1212-8888--
C -9-999999-10-1010-8888--9-999999-12-1212-8888--
G -7-777777-8--8-8--6666--7-777777-10-1010-6666--
D -----------------------------------------------

D -----------------------------------
A -----------------------------------
F -----------------------------------
C ---------555555554444444411111111--
G ---------333333332222222222222222--
D -00000000--------------------------

Lead:
D -------------------------------------------------------------
A -8----5-7-8----8/10-7---------0-5-7-8----5-7-8-----8/10-7----
F -------------------------8-----------------------------------
C -------------------------------------------------------------
G -------------------------------------------------------------
D -------------------------------------------------------------

D -----------------------------------------------------
A -8---0-5-7-8----5-8/10-7--------------5----5/4----5--
F ----------------------------5-4/5-4------------------
C -----------------------------------------------------
G -----------------------------------------------------
D -----------------------------------------------------
             x4                     x4
D -------------|------|---------------|----------------
A -8-5-7-8-5-7-|------|-10-5-8-10-5-8-|-12-5-7-12-5-7--
F -T-----T-----|-5----|-T------T------|-T------T-------
C -------------|------|---------------|----------------
G -------------|------|---------------|----------------
D -------------|------|---------------|----------------

D -------------------------------------------
A -------------------------------------------
F -------------------------------------------
C -----9999----10101010----9999----12121212--
G -----7777----8-8-8-8-----7777----10101010--
D -0000----0000--------0000----0000----------

  Visit MetalTabs.com for more metal tablature

bottom separator

Contact Us | Privacy Policy | Disclaimer | Legal Notice
Copyright © 2001-2014 MetalTabs.com. All Rights Reserved.