top separator

Home

Forum

What's New

Submit a Tab

FAQ

Links

Contact Us

Link to Us

MetalTabs.com logo

Bands

0-9

A

B

C

D

E

F

G

H

I

J

K

L

M

N

O

P

Q

R

S

T

U

V

W

X

Y

Z

Search

What

Where
 

Dismember - "Nenia" Guitar Tab

Plain Text Version
More Dismember Tabs

Hits: 1643
Rated: 4.75 out of 5 (4 votes)
Updated: 2009-08-02 09:37:36

 

By:

Ludool

sendpm.gif

email.gif

Important note
This tab is available online because we obtained explicit permission from Dismember or their label.


#----------------------------------PLEASE NOTE---------------------------------#
#This file is the author's own work and represents their interpretation of the #
#song. You may only use this file for private study, scholarship, or research. #
#Unless specified otherwise, this is NOT an official tab from the band members.#
#------------------------------------------------------------------------------#

  Visit MetalTabs.com for more metal tablature
  
Band: Dismember
Title: Nenia
Album: Massive Killing Capacity


Copyright (c) Nuclear Blast 1995

Transcribed by ludool
e-mail: ludool@hotmail.fr


Symbols:

: slide
h/p: hammer on/pull off
^: bend
(x): not played
.: palm muting



I was searching this tab in vain for a while, so I decided to tab it by
myself... I'm quite sure about it, however let me know any comments or
corrections.


Tune D

Riff A
|-----------------------------------------------
|-----------------------------------------------
|-----------------------------------------------
|-7-----5-----3-----2---------------------------
|-5-----3-----1-----0-----8--7--8--------------
|-----------------------------------------------



Riff B
|-----------------------------------------------
|-----------------------------------------------
|-----------------------------------------------
|-----------------------------------------------
|--5--8--8-10-8-7--10--8--8-10-8----------------
|-----------------------------------------------

|-----------------------------------------------
|-----------------------------------------------
|-----------------------------------------------
|--10--8--10-8-7h8p7h8p7h8p7h8p7----------------
|-------------------------------8--7--8---------
|-----------------------------------------------



Riff C
|-----------------------------------------------
|-----------------------------------------------
|-----------------------------------------------
|-7---7---5---5---3---3---2---2-----------------
|-5---5---3---3---1---1---0---0---8--7--8------
|-----------------------------------------------


SOLO 1
|-----------------------------------------------
|-----------------------------------------------
|-----------------------------------------------
|--12--14-15-14h15p14-12-14-14^(15)^(14)-------
|-----------------------------------------------
|-----------------------------------------------

|-----------------------------------------------
|-----------------------------------------------
|----------13^(14)-13^(14)----------------------
|-12-14-15--------------------------------------
|-----------------------------------------------
|-----------------------------------------------

|-----------------------------------------------
|------------------------------10-15-15---------
|-12-10-12-10h12p10p9-10-9---10-----------------
|--------------------------12-------------------
|-----------------------------------------------
|-----------------------------------------------

|-----------------------------------------------------
|--18-17-15-15h17p15-14--15-17-17^(18)15-17^(18)-17^--
|-----------------------------------------------------
|-----------------------------------------------------
|-----------------------------------------------------
|-----------------------------------------------------

|-----------------------------------------------------
|-----------------------------------------------------
|------------------------------------14----14-15-16^--
|-12--12h14h15--12-14-12-14-15-14-15----17------------
|-----------------------------------------------------
|-----------------------------------------------------

|--------------------------------------------------
|--------------------------------------------------
|--15-14h15p14---14--------------------------------
|-------------17----17-15h17p15p14-15-14-12-14-12--
|--------------------------------------------------
|--------------------------------------------------

|--------------------------------------------------------
|--------------------------------------------------------
|----7-------------------13^(14)^(13)10-13^(14)-13^(14)--
|--7---7-8--7h8p7----------------------------------------
|----------------10--8-----------------------------------
|--------------------------------------------------------

|-----------------------------------------------------
|----------------------------------15-----15/--------
|--9--9h10p9p7-6---9^(10)7-6-7------------------------
|-----------------------------------------------------
|-----------------------------------------------------
|-----------------------------------------------------



Riff D
|----------------------------------------------------
|----------------------------------------------------
|----------------------------------------------------
|----------------------------------------------------
|--5-5-5-5-5-5-5-5-8-8-8-8-8-8-10-8-7-7-7-7-7-7-7-7--
|----.-.---.-.---.---.-.---.----------.-.---.-.---.--

|-----------------------------------------------
|-----------------------------------------------
|-----------------------------------------------
|-----------------------------------------------
|--10-10-10-8-8-8-8-10-8-8-8-8-8-8-8-8----------
|-----.--.----.-.--------.-.---.-.---.----------

|-----------------------------------------------------
|-----------------------------------------------------
|-----------------------------------------------------
|--10-----8-----10-8-7-----7-----7--------------------
|-----8-8---8-8--------7-7---7-7---7--8--7--8--------
|-----.-.---.-.--------.-.---.-.---.------------------

|-----------------------------------------------------
|-----------------------------------------------------
|-----------------------------------------------------
|--7--------------------------------------------------
|--5--5-7-8--------9^(10)-8-7-------------------------
|-----------6----6------------------------------------

|-----------------------------------------------------
|-----------------------------------------------------
|-----------------------------------------------------
|--7--------10-8-7------------------------------------
|--5--5-7-8--------10-8-7-----------------------------
|-----------------------------------------------------


Riff D' (some variations)
|----------------------------------------------------
|----------------------------------------------------
|----------------------------------------------------
|----------------------------------------------------
|--5-5-5-5-5-5-5-5-8-8-8-8-8-8-10-8-7-7-7-7-7-7-7-7--
|----.-.---.-.---.---.-.---.----------.-.---.-.---.--

|-----------------------------------------------
|-----------------------------------------------
|-----------------------------------------------
|-----------------------------------------------
|--10-10-10-8-8-8-8-10-8-8-8-8-8-8-8-8----------
|-----.--.----.-.--------.-.---.-.---.----------

|-----------------------------------------------------
|-----------------------------------------------------
|-----------------------------------------------------
|--10-----8-----10-8-7--------------------------------
|-----8-8---8-8--------7-7-7-7-7-7-7-7--8--7--8------
|-----.-.---.-.--------.-.-.-.-.-.-.-.----------------

|-----------------------------------------------------
|-----------------------------------------------------
|-----------------------------------------------------
|--7--------------------------------------------------
|--5--5-7-8--------9^(10)-8-7-------------------------
|-----------6----6------------------------------------

|-----------------------------------------------------
|-----------------------------------------------------
|-----------------------------------------------------
|--7--------10-8-7---------7--------------------------
|--5--5-7-8--------10-8-7--5--------------------------
|-----------------------------------------------------



Riff E1
|-------------------
|-------------------
|-------------------
|-------------------
|--5-5-5-5-5-5-5-5--
|--5-5-5-5-5-5-5-5--
   . . . . . . . .

Riff E2
|--------------------------------------
|--------------------------------------
|--------------------------------------
|--------------------------------------
|---5---5--7---7--8---8-10-8-7---------
|------5------7------8-----------------

|--------------------------------------
|--------------------------------------
|--------------------------------------
|--------------------------------------
|---5---5--7---7--8---8-10-8h10p8-7----
|------5------7------8-----------------


Riff F
|-----------------------------------------------------
|-----------------------------------------------------
|-----------------------------------------------------
|--7----7-5----5--------------------------------------
|--5----5-3----3-3---3-2-5---3-2----------------------
|----------------1---1-0-3---1-0----------------------
                     .       .

SOLO 2
  part 1
|-----------------------------------------------------
|-----------------------------------------------------
|---------5---5---------------------------------------
|---------------8-7h8p7-------------------------------
|--5----5----5---------8-10--8-7----------------------
|-----5------.----------------------------------------
      .

|-----------------------------------------------------
|-----------------------------------------------------
|--10--------17--15-14--19--17h19p17p14-15--14-12-----
|------14-12------------------------------------------
|-----------------------------------------------------
|-----------------------------------------------------

|-----------------------------------------------------
|-----------------------------------------------------
|------12---------------------------------------------
|-12--------10--8-7-8--7h8p75------7----8---8--------
|------------------------------8--5----8----8---------
|-----------------------------------------------------


|-----------------------------------------------------
|-----------------------------------------------------
|------------------(both guitars play it and the 2nd one
|--12---12-10-9-10---continues on Riff F until the end)
|--10---10-8--7-8-------------------------------------
|-------.--.--.-.-------------------------------------

  part 2
|-----------------------------------------------------
|-----------------------------------------------------
|--10-10-9h10p9----7-9-10-11^(12)-10-9-7-------------
|---------------7--7----------------------------------
|-----------------------------------------------------
|-----------------------------------------------------

|-----------------------------------------------------
|-----------------------------------------------------
|--7--7-9--7-9-10-710-13^(14)-13^(14)----------------
|--------------------------------------15-14h15p14-12-
|-----------------------------------------------------
|-----------------------------------------------------

|----1312h13p12---------------------------------------
|--------------15-13^(14)-----------------------------
|--14---------------------15p14h15p14h15p14h15p14-----
|-----------------------------------------------------
|-----------------------------------------------------
|-----------------------------------------------------

|-----------------------------------------------------
|-----------------------------------------------------
|--12h14p12h14p12h14p12--------------------12^(13)----
|----------------------15p14h15p14h15p14h15-----------
|-----------------------------------------------------
|-----------------------------------------------------

|-------------------------------------------------------
|-------------------------------------------------------
|-------------------------12^(13)--12-------------------
|--15-14h15p14-12---14-15-------------15-14-15-14h15p15-
|-------------------------------------------------------
|-------------------------------------------------------

|-----------------------------------------------------
|-----------------------------------------------------
|-----------------------------------------------------
|--12------------------------------7------------------
|-----15-12-13-12-10^---9h10p9p7-9-5------------------
|-----------------------------------------------------



Song structure:

Riff A  x2
Riff B  x2
Riff C  x2 during SOLO 1
Riff D
Riff D'
Riff E1
Riff E2 x2
Riff F  x4
SOLO 2 part 1
Riff F  x4 during SOLO 2 part 2


END

  Visit MetalTabs.com for more metal tablature

bottom separator

Contact Us | Privacy Policy | Disclaimer | Legal Notice
Copyright © 2001-2014 MetalTabs.com. All Rights Reserved.