top separator

Home

Forum

What's New

Submit a Tab

FAQ

Links

Contact Us

Link to Us

MuSpy.com

MetalTabs.com logo

Bands

0-9

A

B

C

D

E

F

G

H

I

J

K

L

M

N

O

P

Q

R

S

T

U

V

W

X

Y

Z

Search

What

Where
 

Destroyer 666 - "Cold Steel..." Guitar Tab

Plain Text Version
More Destroyer 666 Tabs

Hits: 1733
Rated: 5.00 out of 5 (13 votes)
Updated: 2009-05-01 04:19:41

 

By:

Wolfsherz

sendpm.gif

email.gif

Important note
This tab is available online because we obtained explicit permission from Destroyer 666 or their label.


#----------------------------------PLEASE NOTE---------------------------------#
#This file is the author's own work and represents their interpretation of the #
#song. You may only use this file for private study, scholarship, or research. #
#Unless specified otherwise, this is NOT an official tab from the band members.#
#------------------------------------------------------------------------------#

  Visit MetalTabs.com for more metal tablature
  
Band: Deströyer 666
Album: Cold Steel... For an Iron Age
Song: Cold Steel...

Copyright (c) Season of Mist 2002

Transcribed By: Jens Cautereels
Email: cautereels.jens@gmail.com

Tuning D# G# C# F# A# D#

Intro
D# -0-----0----0--0-----0------------------
A# ---0-----0-------0-----0-----------0----
F# -----0--------------------------5-------
C# -------------3-----3------3----7--------
G# ----------------------------------------
D# ----------------------------------------

D# ---------------------------------------
A# ---------------------------------------
F# ---------------------------------------
C# -2----3----7-7---7-7---7-7-------------
G# -2----3----7-7---7-7---7-7-------------
D# -0----1----5-50005-50005-5000----------

D# --------------------------------------------------
A# --------------------------------------------------
F# -9--9--9--9--10--10--10--10-----------------------
C# -9--9--9--9--10--10--10--10---7-7---7-7---7-7-----
G# -7--7--7--7--8---8---8---8----7-7---7-7---7-7-----
D# --00-00-00-00--00--00--00--00-5-50005-50005-5000--

D# ------
A# ------
F# ------
C# -5----
G# -5----
D# -3----

Lead:
D# ---------------------------------------
A# ---------------------------------------
F# ---------------------------------------
C# -999--------9977991010101010999--------
G# ----77777777-------------------101010--
D# ---------------------------------------

D# ---------------------------|-------
A# -121212---131313-101210----|-12----
F# -------999-----------------|-------
C# ---------------------------|-------
G# ---------------------------|-------
D# ---------------------------|-------
Rythm:
                                  at end of lead
D# ------------------------------|----------
A# ------------------------------|----------
F# -9------------9-7-9-10101010--|----------
C# -9------------9-7-9-10101010--|-5-7-2----
G# -7------------7-5-7-8-8-8-8---|-5-7-2----
D# --000000000000----------------|-3-5-0----

D# ---------------------------------------
A# ---------------------------------------
F# ---------------------------------------
C# -2----3----7-7---7-7---7-7-------------
G# -2----3----7-7---7-7---7-7-------------
D# -0----1----5-50005-50005-5000----------

D# --------------------------------------------------
A# --------------------------------------------------
F# -9--9--9--9--10--10--10--10-----------------------
C# -9--9--9--9--10--10--10--10---7-7---7-7---7-7-----
G# -7--7--7--7--8---8---8---8----7-7---7-7---7-7-----
D# --00-00-00-00--00--00--00--00-5-50005-50005-5000--

D# ----------------------------------------
A# ----------------------------------------
F# ----------------------------------------
C# -5----5-7-5-3-5---3-3----3---3-5-3-5-7--
G# -5----5-7-5-3-5-2-3-3----3-2-3-5-3-5-7--
D# -3----3-5-3-1-3-0-1-1----1-0-1-3-1-3-5--

Lead:
D# -------------------------------------------------------
A# ---------------------------------10----8-10-8-6-8-5-6--
F# -----------9----7-9-7-5-7-4-5--------------------------
C# -7----7------------------------------------------------
G# -------------------------------------------------------
D# -------------------------------------------------------
Rythm:
                                  at end of lead
D# ------------------------------|----------
A# ------------------------------|----------
F# -9------------9-7-9-10101010--|----------
C# -9------------9-7-9-10101010--|-5-7-2----
G# -7------------7-5-7-8-8-8-8---|-5-7-2----
D# --000000000000----------------|-3-5-0----

D# ---------------------
A# ---------------------
F# ---------------------
C# -999---101010-7-9-7--
G# ----777--------------
D# ---------------------

D# -----------------------------------------------------
A# ------------------------------------------------11ph-
F# -------------------77----7799779-1010101010-9-7------
C# -997799-1010991010---1010----------------------------
G# -----------------------------------------------------
D# -----------------------------------------------------

D# ----------------------------------------------
A# ------------88----88-1010881010-121210101212--
F# -1010991010---1010----------------------------
C# ----------------------------------------------
G# ----------------------------------------------
D# ----------------------------------------------

D# ------------------------------------------------------
A# -131312121010-131312121010-131312121010-131312121010--
F# ------------------------------------------------------
C# ------------------------------------------------------
G# ------------------------------------------------------
D# ------------------------------------------------------

D# ---------------------------|-------
A# -121212---131313-101210----|-12----
F# -------999-----------------|-------
C# ---------------------------|-------
G# ---------------------------|-------
D# ---------------------------|-------

D# ---------------------------------------
A# ---------------------------------------
F# ---------------------------------------
C# -2----3----7-7---7-7---7-7-------------
G# -2----3----7-7---7-7---7-7-------------
D# -0----1----5-50005-50005-5000----------

D# --------------------------------------------------
A# --------------------------------------------------
F# -9--9--9--9--10--10--10--10-----------------------
C# -9--9--9--9--10--10--10--10---7-7---7-7---7-7-----
G# -7--7--7--7--8---8---8---8----7-7---7-7---7-7-----
D# --00-00-00-00--00--00--00--00-5-50005-50005-5000--

Lead:
                                 bend notes
D# ---------------------------------------12----12--
A# ---------------------------------12--------------
F# -9-79-79-79-710-710-710-710-7--------------------
C# -------------------------------------------------
G# -------------------------------------------------
D# -------------------------------------------------

D# ---------------------------------------12----17----------
A# ---------------------------------12----------------------
F# -9-79-79-79-710-710-710-710-7----------------------------
C# ---------------------------------------------------9-----
G# ---------------------------------------------------------
D# ---------------------------------------------------------

D# -------------------------------------------------------
A# ---------------------------------10----8-10-8-6-8-5-6--
F# -----------9----7-9-7-5-7-4-5--------------------------
C# -7----7------------------------------------------------
G# -------------------------------------------------------
D# -------------------------------------------------------

  Visit MetalTabs.com for more metal tablature

bottom separator

Contact Us | Privacy Policy | Disclaimer | Legal Notice
Copyright © 2001-2014 MetalTabs.com. All Rights Reserved.