top separator

Home

Forum

What's New

Submit a Tab

FAQ

Links

Contact Us

Link to Us

MetalTabs.com logo

Bands

0-9

A

B

C

D

E

F

G

H

I

J

K

L

M

N

O

P

Q

R

S

T

U

V

W

X

Y

Z

Search

What

Where
 

Anaal Nathrakh - "Shatter the Empyrean" Guitar Tab

Plain Text Version
More Anaal Nathrakh Tabs

Hits: 1642
Rated: 3.00 out of 5 (1 vote)
Updated: 2009-05-01 04:16:33

 

By:

Sick Steve

sendpm.gif

email.gif

Important note
This tab is available online because we obtained explicit permission from Anaal Nathrakh or their label.


#----------------------------------PLEASE NOTE---------------------------------#
#This file is the author's own work and represents their interpretation of the #
#song. You may only use this file for private study, scholarship, or research. #
#Unless specified otherwise, this is NOT an official tab from the band members.#
#------------------------------------------------------------------------------#

  Visit MetalTabs.com for more metal tablature
  
Band:  Anaal Nathrakh
Album: Hell is Empty, and all the Devils are Here
Song:  Shatter the Empyrean

Copyright (c)  FETO Records 2007
Version 1.0 - 16/04/2009

Transcribed By: Sick Steve



.  - palm mute           /  - slide up to
\  - slide down to       ~  - vibrato
h  - hammer on           b  - Bend
p  - pull off            Suffixes for bend
t  - tap                 f  - full bend    h - half bend
ph - pinched harmonic    q  - quarter bend t - tap bend
*  - see comment         ^  - Hold bend    r release bend
x  - Stuccatto           ~  - vibrato bend
,  - slight palm mute    () - ghost note, sustained note
"  - tremolo note        <> - Trill


Riff 1


                                        1,2,3                    4
C-|-------------------------|--------------------------|-----------------|
G-|-------------------------|--------------------------|-----------------|
Eb|-------------------------|--------------------------|-----------------|
Bb|-4-----4-----5--4--------|--4-----4-----5-----5-----|-----------------|
F-|-------------------------|--------------------------|-x-9---8----5----|
C-|----2-----2--------0--2--|-----2-----2-----2-----2--|-x-7---6----3----|


Riff 2


                    x3
C-|------------------|-------------------------------------|
G-|------------------|-------------------------------------|
Eb|------------------|-------------------------------------|
Bb|------------------|-------------------------------------|
F-|------------------|-22221111----------------------------|
C-|-2222220033333333-|---------33333333--------------------|
    ................   ................


Riff 3


                           x2
C-|-------------------------|-------------------------------------------------|
G-|-------------------------|-------------------------------------------------|
Eb|-------------------------|-------------------------------------------------|
Bb|-------------------44444-|-------------------5555--------------------7777--|
F-|-------------------------|-------------------------------------------------|
C-|-0--2--0--2--0--2--------|-2--3--2--3--2--3--------3--5--3--5--3--5--------|


Riff 4


C-|--------------------------------------------------|
G-|--------------------------------------------------|
Eb|--------------------------------------------------|
Bb|-------------2222---------------------------------|
F-|-222244445555-------------------------------------|
C-|-----------------22222222222222223333333355555555-|
    ................................................



Riff 5


                                 1                   2
C-|-------------------|---------------------|----------------|
G-|-------------------|---------------------|----------------|
Eb|-------------------|---------------------|----------------|
Bb|-------------------|---------------------|-7----6---------|
F-|------8-----8------|------5---8------5-7-|-----------8----|
C-|-0-------0-------0-|-1-------------0-----|----------------|

  Visit MetalTabs.com for more metal tablature

bottom separator

Contact Us | Privacy Policy | Disclaimer | Legal Notice
Copyright © 2001-2014 MetalTabs.com. All Rights Reserved.