top separator

Home

Forum

What's New

Submit a Tab

FAQ

Links

Contact Us

Link to Us

MuSpy.com

MetalTabs.com logo

Bands

0-9

A

B

C

D

E

F

G

H

I

J

K

L

M

N

O

P

Q

R

S

T

U

V

W

X

Y

Z

Search

What

Where
 

Horna - "Synkän Muiston Äärellä" Guitar Tab

Plain Text Version
More Horna Tabs

Hits: 1318
Rated: 3.80 out of 5 (5 votes)
Updated: 2009-04-13 05:21:38

 

By:

Ludool

sendpm.gif

email.gif

Important note
This tab is available online because we obtained explicit permission from Horna or their label.


#----------------------------------PLEASE NOTE---------------------------------#
#This file is the author's own work and represents their interpretation of the #
#song. You may only use this file for private study, scholarship, or research. #
#Unless specified otherwise, this is NOT an official tab from the band members.#
#------------------------------------------------------------------------------#

  Visit MetalTabs.com for more metal tablature
  
Band: Horna
Title: Synkän Muiston Äärellä
Album: Sudentaival
Tune D

Copyright (c) Woodcut Records 2001

Transcribed by ludool
e-mail: ludool@hotmail.fr


Symbols:

": thrill
^: hammer on/pull off
.: palm muting



Riff A:
|-----------------------------------------|
|-----------------------------------------|
|-----------------------------------------|
|-----------------------------------------|
|--7-----5--8--7--10--9-109--7---5--8--7--|
|--5-----3--6--5---8--7-8-7--5---3--6--5--|
   "     "  "  "   "  " " "  "   "  "  "

|-----------------------------------------|
|-----------------------------------------|
|-----------------------------------------|
|-----------------------------------------|
|--3------------------2-------------------|
|--1------------------0-------------------|
   "                  "

Riff B:
|-----------------------------------------|
|-----------------------------------------|
|-----------------------------------------|gtr1
|------------------------------------6-6--|
|--77777777777777777777777777777777774-4--|
|--5555555555555555555555555555555555-----|

|-----------------------------------------|
|-----------------------------------------|
|-----------------------------------------| gtr2
|--7-6-----7-6-10-9^10^9-7-6-10-9-7-6-6-6-|(not sure about it)
|------8-7----------------------------4-4-|
|-----------------------------------------|


Riff C:
|------------------------------------------|
|------------------------------------------|
|------------------------------------------|
|--777777777777777777----------------------|
|--55555555555555555566666666666666666666--|
|--------------------44444444444444444444--|



Riff D:
|------------------------------------------|
|------------------------------------------|
|------------------------------------------|(listen to the song
|------------------------------------------| for good rythm)
|--2-2-22-2-2-2-2-2-2-22-2-2-9976-6-6-6-6--|
|--0-0-00-0-0-0-0-0-0-00-0-0-7754-4-4-4-4--|
     .    . . . . . .    . .



Riff D':
|------------|
|------------|
|------------|
|--2---------|let ring
|--2---------|
|--0---------|


while the bass plays:
|--------------------|
|--------------------|x4
|--------------------|
|--0-04433443344330--|



Riff E:
|------------------------------------|
|------------------------------------|
|------------------------------------|
|------------------------------------|
|--2-266556655668899886699886655886--|
|--0-044334433446677664477664433664--|




Riff F:
|---------------------------------------------------|
|---------------------------------------------------|
|---------------------------------------------------|gtr1
|--7777777777777777733333333------------------------|
|--55555555555555555111111116666666666666666666666--|
|---------------------------4444444444444444444444--|


|---------------------------------------------------|
|---------------------------------------------------|
|------7-8-7-------7-8---5--------------------------|gtr2
|----7-------7---7-----8---9-6---6---6-9-6---6---6--|
|--5-----------5---------------5---5-------5---5----|
|---------------------------------------------------|



Riff F':
|------------|
|------------|
|------------|let ring and stop
|--7---------|
|--5---------|
|------------



Riff G:
|----------------------------------------|
|----------------------------------------|
|----------------------------------------|gtr1
|--7---7-7/8-8----4-4-4------------------|
|--5---5-5/6-6----2-2-2------------------|
|-------------------.--------------------|


|----------------------------------------|
|---------------87-----8888777755557777--|
|-----------------4----------------------|gtr2
|--7---7-7/8-8-8-------------------------|
|--5---5-5/6-6---------------------------|
|----------------------------------------|


Riff H:
|-------------------------------|
|-------------------------------|
|-------------------------------|
|--7---7-7----------------------|
|--5---5-56-6---6---------------|
|---------4-4---4---------------|



Riff I:
|---------------------------------------|
|---------------------------------------|
|---------------------------------------|
|---------6-6--6-6\5-5--5-5/8-8--8-8----|
|--5--5-5-4-4--4-4\3-3--3-3/6-6--6-6-5--|
|--3--3-3----------------------------3--|


Riff I'
|-----------------|
|-----------------|
|-----------------|
|---5-------------|let ring
|---5-------------|
|---3-------------|



Song's structure:

Riff A
Riff B
Riff A
Riff B
Riff C
Riff D
Riff C
Riff D'
Riff E        each riff is played 4 times
Riff D         exept riff D', F' and I'.
Riff C
Riff F
Riff F'
Riff G
Riff H
Riff I
Riff G
Riff H
Riff I
Riff I'


Contact me for any comments or corrections!

Stay true! Stay black! Stay metal!

  Visit MetalTabs.com for more metal tablature

bottom separator

Contact Us | Privacy Policy | Disclaimer | Legal Notice
Copyright © 2001-2014 MetalTabs.com. All Rights Reserved.