top separator

Home

Forum

What's New

Submit a Tab

FAQ

Links

Contact Us

Link to Us

MetalTabs.com logo

Bands

0-9

A

B

C

D

E

F

G

H

I

J

K

L

M

N

O

P

Q

R

S

T

U

V

W

X

Y

Z

Search

What

Where
 

Virus (NO) - "Archives" Guitar Tab

Plain Text Version
More Virus (NO) Tabs

Hits: 1183
Updated: 2009-04-13 05:16:09

 

By:

trognz

sendpm.gif

email.gif

Important note
This tab is available online because we obtained explicit permission from Virus (NO) or their label.


#----------------------------------PLEASE NOTE---------------------------------#
#This file is the author's own work and represents their interpretation of the #
#song. You may only use this file for private study, scholarship, or research. #
#Unless specified otherwise, this is NOT an official tab from the band members.#
#------------------------------------------------------------------------------#

  Visit MetalTabs.com for more metal tablature
  
Band:  Virus
Album: The Black Flux
Song:  Archives

Copyright (c) Season of Mist 2008
Version 1.0 - 26/03/2009

Transcribed By: Trognz
Email:          trognz@gmail.com

Comments:

Your neighbours will love that one, so twisted and hypnotic harmony again :)

As usual, let ring a maximum (the "L" within tab, please check the legend).
I also think that you need to use the thumb for D string for the first chords.

Any input would be greatly appreciated.

Enjoy!

Virulently,
Trognz

Tuning is 1 whole step down : D G C F A D



               v                        v
               Q    E  Q    E  E  E     Q    E  Q    E  E  E
D||-------||---0------------------L--|--0------------------L--|
A||-------||---4------------------L--|--4------------------L--|
F||-------||*--5------------------L--|--5------------------L--|
C||-------||*--7------------------L--|--7------------------L--|
G||-------||---0----0--0----0--0--0--|--0----0--0----0--0--0--|
D||-------||---4----4--4----4--4--4--|--4----4--4----4--4--4--|


  v                        v                        v
  Q    E  Q    E  E  E     Q    E  Q    E  E  E     Q    E  Q    E  E  E
--0------------------L--|--1------------------L--|------------------------|
--4------------------L--|--0------------------L--|--0------------------L--|
--5------------------L--|--0------------------L--|--3------------------L--|
--7------------------L--|--3------------------L--|--5------------------L--|
--0----0--0----0--0--0--|--3----3--3----3--3--3--|--5----5--5----5--5--5--|
--4----4--4----4--4--4--|--1----1--1----1--1--1--|--3----3--3----3--3--3--|


  v                        v                        v
  Q    E  Q    E  E  E     Q    E  Q    E  E  E     Q    E  Q    E  E  E   8x
------------------------|------------------------|-------------------------||
--0------------------L--|--0------------------L--|--0------------------L---||
--3------------------L--|--3------------------L--|--3------------------L--*||
--5------------------L--|--5------------------L--|--5------------------L--*||
--5----5--5----5--5--5--|--5----5--5----5--5--5--|--5----5--5----5--5--5---||
--3----3--3----3--3--3--|--3----3--3----3--3--3--|--3----3--3----3--3--3---||


   |----3----|    |----3----|
   Q    Q    Q    Q    Q    Q       H        H
---3----3------------------------|--------------------|
---3----3----L----6----6----L----|--L--------L--------|
*--3----3----L----6----6----L----|--L--------L--------|
*--5----5----L----8----8----L----|--L--------L--------|
---5----5----L----8----8----L----|--L--------L--------|
---3----3----L----6----9----L----|--L--------L--------|


  |----3----|    |----3----|       |----------5---------|
  Q    Q    Q    Q    Q    Q       Q     Q    Q    Q    Q
-----------------1----1----L----|----------------------------|
-----------------1----1----L----|----------------------------|
--1----1----L----4----4----L----|--7-----7----7----7----L----|
--3----3----L----3----3----L----|--6-----6----6----6----L----|
--3----3---------2----2----L----|--5-----5----5----5----L----|
--1----1----L-------------------|--3S----4----4----4----L----|


  |----------5---------|         |----3----|    |----3----|
  Q     Q    Q    Q    Q         Q    Q    Q    Q    Q    Q
-----------------------------||--------------------------------|
-----------------------------||-----------------6----6----L----|
--7-----7----7----7----L----*||--1----1----1----4----4----L----|
--6-----6----6----6----L----*||--3----3----3----3----3----L----|
--5-----5----5----5----L-----||--3----3----3----2----2----L----|
--3S----4----4----4----L-----||--1----1----1-------------------|


                         v                        v
  H        H             Q    E  Q    E  E  E     Q    E  Q    E  E  E
--------------------||---0------------------L--|--0------------------L--|
--L-----------------||---4------------------L--|--4------------------L--|
--L-----------------||*--5------------------L--|--5------------------L--|
--L-----------------||*--7------------------L--|--7------------------L--|
--L-----------------||---0----0--0----0--0--0--|--0----0--0----0--0--0--|
--------------------||---4----4--4----4--4--4--|--4----4--4----4--4--4--|


  v                        v                        v
  Q    E  Q    E  E  E     Q    E  Q    E  E  E     Q    E  Q    E  E  E
--0------------------L--|--1------------------L--|------------------------|
--4------------------L--|--0------------------L--|--0------------------L--|
--5------------------L--|--0------------------L--|--3------------------L--|
--7------------------L--|--3------------------L--|--5------------------L--|
--0----0--0----0--0--0--|--3----3--3----3--3--3--|--5----5--5----5--5--5--|
--4----4--4----4--4--4--|--1----1--1----1--1--1--|--3----3--3----3--3--3--|


  v                        v                        v
  Q    E  Q    E  E  E     Q    E  Q    E  E  E     Q    E  Q    E  E  E   4x
------------------------|------------------------|-------------------------||
--0------------------L--|--0------------------L--|--0------------------L---||
--3------------------L--|--3------------------L--|--3------------------L--*||
--5------------------L--|--5------------------L--|--5------------------L--*||
--5----5--5----5--5--5--|--5----5--5----5--5--5--|--5----5--5----5--5--5---||
--3----3--3----3--3--3--|--3----3--3----3--3--3--|--3----3--3----3--3--3---||


   |----3----|    |----3----|
   Q    Q    Q    Q    Q    Q       H        H
---3----3------------------------|--------------------|
---3----3----L----6----6----L----|--L--------L--------|
*--3----3----L----6----6----L----|--L--------L--------|
*--5----5----L----8----8----L----|--L--------L--------|
---5----5----L----8----8----L----|--L--------L--------|
---3----3----L----6----9----L----|--L--------L--------|


  |----3----|    |----3----|       |----------5---------|
  Q    Q    Q    Q    Q    Q       Q     Q    Q    Q    Q
-----------------1----1----L----|----------------------------|
-----------------1----1----L----|----------------------------|
--1----1----L----4----4----L----|--7-----7----7----7----L----|
--3----3----L----3----3----L----|--6-----6----6----6----L----|
--3----3---------2----2----L----|--5-----5----5----5----L----|
--1----1----L-------------------|--3S----4----4----4----L----|


  |----------5---------|         |----3----|    |----3----|
  Q     Q    Q    Q    Q         Q    Q    Q    Q    Q    Q
-----------------------------||--------------------------------|
-----------------------------||-----------------6----6----L----|
--7-----7----7----7----L----*||--1----1----1----4----4----L----|
--6-----6----6----6----L----*||--3----3----3----3----3----L----|
--5-----5----5----5----L-----||--3----3----3----2----2----L----|
--3S----4----4----4----L-----||--1----1----1-------------------|


                                     |---3--|
  H        H                         E   E  E  Q    H
--------------------|-----------||---------------------------|
--L-----------------|-----------||----------0----------------|
--L-----------------|-----------||*--1s--3-----3----L--------|
--L-----------------|-----------||*--3s--5-----L----L--------|
--L-----------------|-----------||---3s--5-----L----L--------|
--------------------|-----------||---------------------------|


  |---3--|       |----3----|          |---3---|
  E   E  E  Q    Q    Q    Q     4x   E   E   E  Q    H
---------------------------------||----------------------------|
---------0-----------------------||----------------------------|
--1s--3-----3----L---------L----*||*-------------0----L--------|
--3s--5-----L----L--------------*||*--3s--5s--6--L----L--------|
--3s--5-----L----7----7----L-----||---5s--7s--8--L----L--------|
-----------------0----0----L-----||---5s--7s--8-------L--------|


  |---3---|       |----3----|         |---3---|
  E   E   E  Q    Q    Q    Q     3x  E   E   E  Q    H
----------------------------------||---------------------------|
----------------------------------||---------------------------|
-------------0----L---------L----*||-------------0----L--------|
--3s--5s--6--L----L--------------*||--3s--5s--6--L----L--------|
--5s--7s--8--L----7----7----L-----||--5s--7s--8--L----L--------|
--5s--7s--8-------0----0----L-----||--5s--7s--8-------L--------|


  |---3---|       |----3----|       |----3----|
  E   E   E  Q    Q    Q    Q       Q    Q    Q    H
------------------3----1----L----|--------------------------|
------------------5----3----L----|--------------------------|
-------------0----4----2----L----|--------------------------|
--3s--5s--6--L----5----3----L----|--------------------------|
--5s--7s--8--L-------------------|--7----7----L----L--------|
--5s--7s--8----------------------|--0----0----L----L--------|


  |----3----|    |----3----|         |---3--|
  Q    Q    Q    Q    Q    Q         E   E  E  Q    H
-----------------3----1----L----||---------------------------|
-----------------5----3----L----||----------0----------------|
-----------------4----2----L----||*--1s--3-----3----L--------|
-----------------5----3----L----||*--3s--5-----L----L--------|
--L----L----L-------------------||---3s--5-----L----L--------|
--L----L----L-------------------||---------------------------|


  |---3--|       |----3----|          |---3---|
  E   E  E  Q    Q    Q    Q          E   E   E  Q    H
---------------------------------||----------------------------|
---------0-----------------------||----------------------------|
--1s--3-----3----L---------L----*||*-------------0----L--------|
--3s--5-----L----L--------------*||*--3s--5s--6--L----L--------|
--3s--5-----L----7----7----L-----||---5s--7s--8--L----L--------|
-----------------0----0----L-----||---5s--7s--8-------L--------|


  |---3---|       |----3----|          |---3--|
  E   E   E  Q    Q    Q    Q          E   E  E  Q    H
----------------------------------||---------------------------|
----------------------------------||----------0----------------|
-------------0----L---------L----*||*--1s--3-----3----L--------|
--3s--5s--6--L----L--------------*||*--3s--5-----L----L--------|
--5s--7s--8--L----7----7----L-----||---3s--5-----L----L--------|
--5s--7s--8-------0----0----L-----||---------------------------|


  |---3--|       |----3----|         |---3---|
  E   E  E  Q    Q    Q    Q         E   E   E  Q    H
---------------------------------||---------------------------|
---------0-----------------------||---------------------------|
--1s--3-----3----L---------L----*||-------------0----L--------|
--3s--5-----L----L--------------*||--3s--5s--6--L----L--------|
--3s--5-----L----7----7----L-----||--5s--7s--8--L----L--------|
-----------------0----0----L-----||--5s--7s--8-------L--------|


  |---3---|       |----3----|       |---3---|
  E   E   E  Q    Q    Q    Q       E   E   E  Q    H
---------------------------------|---------------------------|
---------------------------------|---------------------------|
-------------0----L---------L----|-------------0----L--------|
--3s--5s--6--L----L--------------|--3s--5s--6--L----L--------|
--5s--7s--8--L----7----7----L----|--5s--7s--8--L----L--------|
--5s--7s--8-------0----0----L----|--5s--7s--8-------L--------|


  |---3---|       |----3----|       |----3----|
  E   E   E  Q    Q    Q    Q       Q    Q    Q    H
------------------3----1----L----|--------------------------|
------------------5----3----L----|--------------------------|
-------------0----4----2----L----|--------------------------|
--3s--5s--6--L----5----3----L----|--------------------------|
--5s--7s--8--L-------------------|--7----7----L----L--------|
--5s--7s--8----------------------|--0----0----L----L--------|


  |----3----|    |----3----|         |----3----|    |----3----|
  Q    Q    Q    Q    Q    Q         Q    Q    Q    Q    Q    Q
-----------------3----1----L----||---3----3------------------------|
-----------------5----3----L----||---3----3----L----6----6----L----|
-----------------4----2----L----||*--3----3----L----6----6----L----|
-----------------5----3----L----||*--5----5----L----8----8----L----|
--L----L----L-------------------||---5----5----L----8----8----L----|
--L----L----L-------------------||---3----3----L----6----9----L----|


                       |----3----|    |----3----|
  H        H           Q    Q    Q    Q    Q    Q
--------------------|-----------------1----1----L----|
--L--------6--------|-----------------1----1----L----|
--L--------6--------|--1----1----L----4----4----L----|
--L--------8--------|--3----3----L----3----3----L----|
--L--------8--------|--3----3----L----2----2----L----|
--L--------9--------|--1----1----L-------------------|


  |----------5---------|       |----------5---------|
  Q     Q    Q    Q    Q       Q     Q    Q    Q    Q
----------------------------|-----------------------------||
----------------------------|-----------------------------||
--7-----7----7----7----L----|--7-----7----7----7----L----*||
--6-----6----6----6----L----|--6-----6----6----6----L----*||
--5-----5----5----5----L----|--5-----5----5----5----L-----||
--3S----4----4----4----L----|--3S----4----4----4----L-----||


  |----3----|    |----3----|
  Q    Q    Q    Q    Q    Q       H        H
-----------------1----1----L----|--L-----------------|
-----------------1----1----L----|--L-----------------|
--1----1----1----4----4----L----|--L-----------------|
--3----3----3----3----3----L----|--L-----------------|
--3----3----3----2----2----L----|--L-----------------|
--1----1----1-------------------|--------------------|


    v                        v                        v
    Q    E  Q    E  E  E     Q    E  Q    E  E  E     Q    E  Q    E  E  E
|---0------------------L--|--0------------------L--|--0------------------L--|
|---4------------------L--|--4------------------L--|--4------------------L--|
|*--5------------------L--|--5------------------L--|--5------------------L--|
|*--7------------------L--|--7------------------L--|--7------------------L--|
|---0----0--0----0--0--0--|--0----0--0----0--0--0--|--0----0--0----0--0--0--|
|---4----4--4----4--4--4--|--4----4--4----4--4--4--|--4----4--4----4--4--4--|


  v                        v                        v
  Q    E  Q    E  E  E     Q    E  Q    E  E  E     Q    E  Q    E  E  E
--1------------------L--|------------------------|------------------------|
--0------------------L--|--0------------------L--|--0------------------L--|
--0------------------L--|--3------------------L--|--3------------------L--|
--3------------------L--|--5------------------L--|--5------------------L--|
--3----3--3----3--3--3--|--5----5--5----5--5--5--|--5----5--5----5--5--5--|
--1----1--1----1--1--1--|--3----3--3----3--3--3--|--3----3--3----3--3--3--|


  v                        v
  Q    E  Q    E  E  E     Q    E  Q    E  E  E   4x
------------------------|-------------------------||
--0------------------L--|--0------------------L---||
--3------------------L--|--3------------------L--*||
--5------------------L--|--5------------------L--*||
--5----5--5----5--5--5--|--5----5--5----5--5--5---||
--3----3--3----3--3--3--|--3----3--3----3--3--3---||


  |----3----|    |----3----|
  Q    Q    Q    Q    Q    Q       H        H
--3----3------------------------|--------------------|
--3----3----L----6----6----L----|--L--------L--------|
--3----3----L----6----6----L----|--L--------L--------|
--5----5----L----8----8----L----|--L--------L--------|
--5----5----L----8----8----L----|--L--------L--------|
--3----3----L----6----9----L----|--L--------L--------|


  |----3----|    |----3----|       |----------5---------|
  Q    Q    Q    Q    Q    Q       Q     Q    Q    Q    Q
-----------------1----1----L----|----------------------------|
-----------------1----1----L----|----------------------------|
--1----1----L----4----4----L----|--7-----7----7----7----L----|
--3----3----L----3----3----L----|--6-----6----6----6----L----|
--3----3----L----2----2----L----|--5-----5----5----5----L----|
--1----1----L-------------------|--3S----4----4----4----L----|


  |----------5---------|       |----3----|    |----3----|
  Q     Q    Q    Q    Q       Q    Q    Q    Q    Q    Q
----------------------------|-----------------1----1----L----|
----------------------------|-----------------1----1----L----|
--7-----7----7----7----L----|--1----1----1----4----4----L----|
--6-----6----6----6----L----|--3----3----3----3----3----L----|
--5-----5----5----5----L----|--3----3----3----2----2----L----|
--3S----4----4----4----L----|--1----1----1-------------------|


  W                   W                   W
--L----------------|--L----------------|--L----------------|
--L----------------|--L----------------|--L----------------|
--L----------------|--L----------------|--L----------------|
--L----------------|--L----------------|--L----------------|
--L----------------|--L----------------|--L----------------|
-------------------|-------------------|-------------------|


  W
--L----------------||
--L----------------||
--L----------------||
--L----------------||
--L----------------||
-------------------||




Duration Legend
---------------
W - whole
H - half
Q - quarter
E - 8th
S - 16th
T - 32nd
X - 64th
. - note dotted
|-n-|  - n-tuplets


Tablature Legend
----------------
L - tied note
x - dead note
g - grace note
(n) - ghost note
> - accentuded note
NH - natural harmonic
AH - artificial harmonic
TH - tapped harmonic
SH - semi harmonic
PH - pitch harmonic
h - hammer on
p - pull off
b - bend
br - bendRelease
pb - preBend
pbr - preBendRelease
brb - bendReleaseBend
\n/ - tremolo bar dip
\n - tremolo bar dive
-/n - tremolo bar Release up
/n\ - tremolo bar inverted dip
/n - tremolo bar return
-\n - tremolo bar Release down
S - shift slide
s - legato slide
/ -  slide into from below or out of upwards
\ -  slide into from above or out of downwards
~ - vibrato
W - wide vibrato
tr - trill
TP - tremolo picking
T - tapping
S - slap
P - pop
< - fade in
^ - brush up
v - brush down

  Visit MetalTabs.com for more metal tablature

bottom separator

Contact Us | Privacy Policy | Disclaimer | Legal Notice
Copyright © 2001-2014 MetalTabs.com. All Rights Reserved.