top separator

Home

Forum

What's New

Submit a Tab

FAQ

Links

Contact Us

Link to Us

MuSpy.com

MetalTabs.com logo

Bands

0-9

A

B

C

D

E

F

G

H

I

J

K

L

M

N

O

P

Q

R

S

T

U

V

W

X

Y

Z

Search

What

Where
 

Antaeus - "Words as Weapons" Guitar Tab

Plain Text Version
More Antaeus Tabs

Hits: 1935
Rated: 4.75 out of 5 (4 votes)
Updated: 2009-04-13 05:15:18

 

By:

Wolfsherz

sendpm.gif

email.gif

Important note
This tab is available online because we obtained explicit permission from Antaeus or their label.


#----------------------------------PLEASE NOTE---------------------------------#
#This file is the author's own work and represents their interpretation of the #
#song. You may only use this file for private study, scholarship, or research. #
#Unless specified otherwise, this is NOT an official tab from the band members.#
#------------------------------------------------------------------------------#

  Visit MetalTabs.com for more metal tablature
  
Band:AntaeuS
Album: Blood Libels
Song: Words as Weapons

Copyright (c) Norma Evangelium Diaboli 2006

Transcribed By: Jens Cautereels
Email: cautereels.jens@gmail.com

Tuning C F Bb Eb G C

C  ----------6----5----------6----5----
G  ------------------------------------
Eb ----------3----2----------3----2----
Bb -222-2-----------222-2--------------
F  -000-0-----------000-0--------------
C  ------------------------------------

C  -----------------
G  -----------------
Eb -----------------
Bb -5----6--3--6----
F  -5----6--3--6----
C  -3----4--1--4----

C  -----------------------------------
G  -----------------------------------
Eb -----------------------------------
Bb -55555555555555556666666633333333--
F  -55555555555555556666666633333333--
C  -33333333333333334444444411111111--

C  -------------------------------------
G  -----5555-----5566-----555588889999--
Eb -----4444-----4455-----444477778888--
Bb -22222222-22222233-2222222255556666--
F  -0000-----0000-----0000--------------
C  -------------------------------------

C  -----------------------------------
G  -----------------------------------
Eb -----------------------------------
Bb -55555555555555556666666633333333--
F  -55555555555555556666666633333333--
C  -33333333333333334444444411111111--

2nd guitar:
C  -----------------------------------
G  -88888888888888889999999966666666--
Eb -77777777777777778888888855555555--
Bb -55555555555555556666666633333333--
F  -----------------------------------
C  -----------------------------------

C  ------------------------------------
G  ------------------------------------
Eb ---------8888-------------88888888--
Bb -777777778888775577777777788888888--
F  -777777776666775577777777766666666--
C  -55555555----5533555555555----------

C  ---------6----------------8----
G  ---------6----------------8----
Eb ---------8----------------8----
Bb -7-------8---7--5--7------8----
F  -7-------6---7--5--7------6----
C  -5-----------5--3--5-----------

C  -----------------
G  -----------------
Eb -----------------
Bb -5----6--3--6----
F  -5----6--3--6----
C  -3----4--1--4----

C  --------------------------------------
G  ---4--4--4---------5-----------2------
Eb ----3--3--3------4---4-------1---1----
Bb -5---5--5--5-6-6-------6-3-3-------3--
F  -5-----------6-----------3------------
C  -3-----------4-----------1------------

C  ------------------------------------
G  ------------------------------------
Eb ---------8888-------------88888888--
Bb -777777778888775577777777788888888--
F  -777777776666775577777777766666666--
C  -55555555----5533555555555----------

C  -------------------------------------
G  -----5555-----5566-----555588889999--
Eb -----4444-----4455-----444477778888--
Bb -22222222-22222233-2222222255556666--
F  -0000-----0000-----0000--------------
C  -------------------------------------

C  -----------------------------------
G  -----------------------------------
Eb -----------------------------------
Bb -55555555555555556666666633333333--
F  -55555555555555556666666633333333--
C  -33333333333333334444444411111111--

2nd guitar:
C  -----------------------------------
G  -88888888888888889999999966666666--
Eb -77777777777777778888888855555555--
Bb -55555555555555556666666633333333--
F  -----------------------------------
C  -----------------------------------

C  ----------6----5-------6----5----
G  ---------------------------------
Eb ----------3----2-------3----2----
Bb -222-2------------2--------------
F  -000-0------------0--------------
C  ---------------------------------


Defeat

  Visit MetalTabs.com for more metal tablature

bottom separator

Contact Us | Privacy Policy | Disclaimer | Legal Notice
Copyright © 2001-2014 MetalTabs.com. All Rights Reserved.