top separator

Home

Forum

What's New

Submit a Tab

FAQ

Links

Contact Us

Link to Us

MetalTabs.com logo

Bands

0-9

A

B

C

D

E

F

G

H

I

J

K

L

M

N

O

P

Q

R

S

T

U

V

W

X

Y

Z

Search

What

Where
 

Antaeus - "Blood Libels" Guitar Tab

Plain Text Version
More Antaeus Tabs

Hits: 1831
Rated: 5.00 out of 5 (3 votes)
Updated: 2009-04-13 05:15:10

 

By:

Wolfsherz

sendpm.gif

email.gif

Important note
This tab is available online because we obtained explicit permission from Antaeus or their label.


#----------------------------------PLEASE NOTE---------------------------------#
#This file is the author's own work and represents their interpretation of the #
#song. You may only use this file for private study, scholarship, or research. #
#Unless specified otherwise, this is NOT an official tab from the band members.#
#------------------------------------------------------------------------------#

  Visit MetalTabs.com for more metal tablature
  
Band:AntaeuS
Album: Blood Libels
Song: Words as Weapons

Copyright (c) Norma Evangelium Diaboli 2006

Transcribed By: Jens Cautereels
Email: cautereels.jens@gmail.com

C  ----3--3--3-----4--4--4-----3--3--3-----2--2--2----
G  ---------------------------------------------------
Eb ---------------------------------------------------
Bb -555555555555666666666666555555555555444444444444--
F  -555555555555666666666666555555555555444444444444--
C  -333333333333444444444444333333333333222222222222--

C  --------------------------------------
G  ---------88888888--------88779999999--
Eb ---------77777777--------77669999999--
Bb -55555555555555555555555555447777777--
F  -55555555--------55555555-------------
C  -33333333--------33333333-------------

C  ------------------------------------------
G  ---------88888888--------887710101010999--
Eb ---------77777777--------77669-9-9-9-888--
Bb -55555555555555555555555555447-7-7-7-666--
F  -55555555--------55555555-----------------
C  -33333333--------33333333-----------------

C  ----3--3--3-----4--4--4-----3--3--3-----2--2--2----
G  ---------------------------------------------------
Eb ---------------------------------------------------
Bb -555555555555666666666666555555555555444444444444--
F  -555555555555666666666666555555555555444444444444--
C  -333333333333444444444444333333333333222222222222--

C  ------------------------------------
G  ------7----6--------------7----6----
Eb ------6----5--------------6----5----
Bb -7----4----3----7/5--7----4----3----
F  -7--------------7/5--7--------------
C  -5--------------5/3--5--------------

C  --------------------------------------
G  ------7----6--7------------7----6--7--
Eb ------6----5--6------------6----5--6--
Bb -7----4----3--4--7/5--7----4----3--4--
F  -7---------------7/5--7---------------
C  -5---------------5/3--5---------------

C  ------
G  ------
Eb ------
Bb -2----
F  -2----
C  -0----

C  -------------------------------------------
G  -------------------------------------------
Eb -------------------------------------------
Bb -5555555555555555333333336666666666666666--
F  -5555555555555555333333336666666666666666--
C  -3333333333333333111111114444444444444444--

C  --------------------------------------
G  ---------88888888--------88779999999--
Eb ---------77777777--------77669999999--
Bb -55555555555555555555555555447777777--
F  -55555555--------55555555-------------
C  -33333333--------33333333-------------

C  ------------------------------------------
G  ---------88888888--------887710101010999--
Eb ---------77777777--------77669-9-9-9-888--
Bb -55555555555555555555555555447-7-7-7-666--
F  -55555555--------55555555-----------------
C  -33333333--------33333333-----------------

C  ----3--3--3-----4--4--4-----3--3--3-----2--2--2----
G  ---------------------------------------------------
Eb ---------------------------------------------------
Bb -555555555555666666666666555555555555444444444444--
F  -555555555555666666666666555555555555444444444444--
C  -333333333333444444444444333333333333222222222222--

C  --------------------------------------------------------------
G  --------------------------------pinch harmonic on open high C-
Eb --------------------------------------------------------------
Bb -5--------6--------5---------6--------------------------------
F  -5--------6--------5---------6--------------------------------
C  -3--------4--------3---------4--------------------------------
View me as a Saint,

blood libel

  Visit MetalTabs.com for more metal tablature

bottom separator

Contact Us | Privacy Policy | Disclaimer | Legal Notice
Copyright © 2001-2014 MetalTabs.com. All Rights Reserved.