top separator

Home

Forum

What's New

Submit a Tab

FAQ

Links

Contact Us

Link to Us

MuSpy.com

MetalTabs.com logo

Bands

0-9

A

B

C

D

E

F

G

H

I

J

K

L

M

N

O

P

Q

R

S

T

U

V

W

X

Y

Z

Search

What

Where
 

Toxic Holocaust - "Nuke the Cross" Guitar Tab

Plain Text Version
More Toxic Holocaust Tabs

Hits: 9282
Rated: 4.44 out of 5 (9 votes)
Updated: 2009-02-17 07:14:02

 

By:

mikeslaughter

sendpm.gif

email.gif

Important note
This tab is available online because we obtained explicit permission from Toxic Holocaust or their label.


#----------------------------------PLEASE NOTE---------------------------------#
#This file is the author's own work and represents their interpretation of the #
#song. You may only use this file for private study, scholarship, or research. #
#Unless specified otherwise, this is NOT an official tab from the band members.#
#------------------------------------------------------------------------------#

  Visit MetalTabs.com for more metal tablature
  
Band:  Toxic Holocaust
Album: An Overdose Of Death...
Song:  Nuke The Cross

Copyright (c)  Relapse 2008
Version 1.0 - 2009

Transcribed By: Michael Slaughter
Email:          redear16@hotmail.com


.  - palm mute           /  - slide up to
\  - slide down to       ~  - vibrato
h  - hammer on           b  - Bend
p  - pull off            Suffixes for bend
t  - tap                 f  - full bend    h - half bend
ph - pinched harmonic    q  - quarter bend t - tap bend
*  - see comment         ^  - Hold bend    r release bend
x  - Stuccatto           ~  - vibrato bend
,  - slight palm mute    () - ghost note, sustained note
"  - tremolo note        <> - Trill

Tuning D G C F A D

Intro and verse
|----------------------------|
|----------------------------|
|----------------------------|
|--------------5--3--5-------|
|--------------3--1--3-------|
|-000000000000---------------|

Chorus
|-------------------------------------------------------------------|
|-------------------------------------------------------------------|
|-------------------------------------------------------------------|
|-------------------------------------------------------------------|
|---------55553333---------55556666---------55553333----------8-----|
|-00003333---------00003333---------00003333---------00003333-6-----|

Repeat verse and chorus

Breakdown

|-----------------------------------------------------------|
|-----------------------------------------------------------|
|-----------------------------------------------------------|
|-----------------------------------------------------------|
|-2---2---2----5-8------2---2---2--5-8-----9---9-8---7-5----|
|-000000000000-3-6----000-000-000--3-6---777-777-666-5-3----|
   ... ... ...        ..  ..  ..
  ______x2________    ______x2________


--------------------------------------------------------|
|-------------------------------------------------------|
|-------------------------------------------------------|
|-----------------------2---2---2-3-3---2---2-7--5------|
|-2---2---2----5-8----000-000-000-1-1-000-000-5--3------|
|-000000000000-3-6--------------------------------------|
   ... ... ...
 _______x2________

Repeat verse, chorus and first half of breakdown.

END

  Visit MetalTabs.com for more metal tablature

bottom separator

Contact Us | Privacy Policy | Disclaimer | Legal Notice
Copyright © 2001-2014 MetalTabs.com. All Rights Reserved.