top separator

Home

Forum

What's New

Submit a Tab

FAQ

Links

Contact Us

Link to Us

MuSpy.com

MetalTabs.com logo

Bands

0-9

A

B

C

D

E

F

G

H

I

J

K

L

M

N

O

P

Q

R

S

T

U

V

W

X

Y

Z

Search

What

Where
 

Arghoslent - "Rape of a Slave" Guitar Tab

Plain Text Version
More Arghoslent Tabs

Hits: 1416
Rated: 5.00 out of 5 (2 votes)
Updated: 2009-02-17 07:12:44

 

By:

Argamocrypt

sendpm.gif

email.gif

Important note
This tab is available online because we obtained explicit permission from Arghoslent or their label.


#----------------------------------PLEASE NOTE---------------------------------#
#This file is the author's own work and represents their interpretation of the #
#song. You may only use this file for private study, scholarship, or research. #
#Unless specified otherwise, this is NOT an official tab from the band members.#
#------------------------------------------------------------------------------#

  Visit MetalTabs.com for more metal tablature
  
Band:  Arghoslent
Album: Galloping Through the Battle Ruins
Song:  Rape of a Slave

Copyright (c) Wood Nymph Records 1998
Version 1.0 - Feb. 10, 2009

Transcribed By: Zach Kraemer
Email:          Tiberian710@aol.com


.  - palm mute           /  - slide up to
\  - slide down to       ~  - vibrato
h  - hammer on           b  - Bend
p  - pull off            Suffixes for bend
t  - tap                 f  - full bend    h - half bend
ph - pinched harmonic    q  - quarter bend t - tap bend
*  - see comment         ^  - Hold bend    r release bend
x  - Staccato            ~  - vibrato bend
,  - slight palm mute    () - ghost note, sustained note
"  - tremolo note        <> - Trill

Tuning: Eb Ab Db Gb Bb Eb

Intro:
 Riff 1
|--------------------------------------------------------------------|
|----------------------------------------5---------------------------|
|----------------------------------------6---------------------------|
|-4--4--3-----6--4-3-------------6--9-6--6-4-6-9-12--9-6------5------|
|-2--2--1-----4--2-1--------4--2-4--7-4----2-4-7-10--7-4------5------|
|-2--2--1--3--4--2-1--3--0-------4--7-4----2-4-7-10--7-4--3-3----3-3-|

Riff 1a
|----------------------------------------|
|---------5------------------------------|
|---------6------------------------------|
|-6--4-6--6-4--6--9--12--9-6-------5-----|
|-4--2-4----2--4--7--10--7-4-------5-----|
|-4--2-4----2--4--7--10--7-4---3-3---3-3-|

 Riff 2
|-------------------------------------|
|-------------------------------------|
|-------------------------------------|
|-6----6-4-6----6-4-2-----------------|
|-4-44-4-2-4-44-4-2-0-00-708080708070-|
|-------------------------------------|

 Riff 3
|-----------------------------------------------------------------|
|-----------------------------------------------------------------|
|-------------4-4-----------------------------4-4-----4-4---------|
|-6-666-6-6-6-----------------4-4-6-666-6-6-6-----6-6-----6-6-4-4-|
|-----------------7-777-7-7-7-------------------------------------|
|-----------------------------------------------------------------|
|
|Riff 3 a
|-----------------------------------------------------------------|
|-----------------------------------------------------------------|
|-----------------------------------------------------------------|
|-6-----------8-8-9-----------8-8-6-----------8-8-9-----------8-8-|
|-4-444-4-4-4-6-6-7-777-7-7-7-6-6-4-444-4-4-4-6-6-7-777-7-7-7-6-6-|
|-----------------------------------------------------------------|

 Riff 4
                                   3x
|------------------------------------|------------------------------------|
|------------------------------------|------------------------------------|
|-------------------4----------------|-------------------4----------------|
|---------------6--------------7-5-5-|---------------6--------------5-7-7-|
|-4-4-444-7p4-4---4----4-4-444-5-3-3-|-4-4-444-7p4-4---4----4-4-444-3-5-5-|
|------------------------------------|------------------------------------|

 Riff 5
|----------------------------------|
|----------------------------------|
|----------------------2-2-4-4-5-5-|
|-6------6----4----9-6-------------|
|-4------4----2----7-4-------------|
|-4-4444-4-44-2-44-7-4-------------|
|
|Riff 5a
|------------------------------|
|------------------------------|
|------------------------------|
|-6------6--4--9-6-------------|
|-4------4--2--7-4-------------|
|-4-4444-4--2--7-4-5-5-7-7-8-8-|

 Riff 6
|-----------------------------------------------------|
|-----------------------------------------------------|
|-----------------------------------------------------|
|-6-6666-6-4-6-7-7777-7-6-7-9-9999-9-7-6-7-7777-7-6-4-|
|-4-4444-4-2-4-5-5555-5-4-5-7-7777-7-5-4-5-5555-5-4-2-|
|-4-4444-4-2-4-5-5555-5-4-5-7-7777-7-5-4-5-5555-5-4-2-|

Riff 6a
|-----------------------------------------------------|
|-----------------------------------------------------|
|-6------6-4-6-7------7-6-7-9------9-7-6-7------7-6-4-|
|---6666---------7777---------9999---------7777-------|
|-----------------------------------------------------|
|-----------------------------------------------------|

 Riff 7
|----------------------------------------------------------------|
|----------------------------------------------------------------|
|-----------------4-666-4-6/9-8~-8-------------------------------|
|-6-----6-----4-6----------------6-666-9-9---------------6-------|
|-4-444---7-7----------------------------7-777-7-9-7---7---9-7-6-|
|----------------------------------------------------9-----------|

Riff 8
|-----------------------------------------------------------------------------|
|-----------------------------------------------------------------------------|
|-12-10-9-10---12-10---15-14-12-14---15-14---12-10-9-10---12-10---5--7--9--5--|
|-0--0--0-0--0-0--0--0-0--0--0--0--0-0--0--0-0--0--0-0--0-0--0--0-0--0--0--0--|
|-----------------------------------------------------------------------------|
|-----------------------------------------------------------------------------|
                                                                  "  "  "  "
 Riff 9
|-------------------------------------------------------------------|
|-------------------------------------------------------------------|
|-10-7---9---10-7---9-5---7---9-5---7-3---5---7-3---5-2---3---5-2---|
|-0--0-0-0-0-0--0-0-0-0-0-0-0-0-0-0-0-0-0-0-0-0-0-0-0-0-0-0-0-0-0-0-|
|-------------------------------------------------------------------|
|-------------------------------------------------------------------|

Structure:
Riff 1 x1
Riff 1a x1
Riff 1 x1
Riff 1a x1
Riff 2 x8
Riff 3 & 3a x4
Riff 2 x4
Riff 4 x1
Riff 5 x4
Riff 4 x1
Riff 6 x2
Riff 6 & 6a x2
Riff 7 x4
Riff 1a x2
Riff 8 x4
Riff 9 x2
Riff 8 x4
Riff 9 x4

  Visit MetalTabs.com for more metal tablature

bottom separator

Contact Us | Privacy Policy | Disclaimer | Legal Notice
Copyright © 2001-2014 MetalTabs.com. All Rights Reserved.