top separator

Home

Forum

What's New

Submit a Tab

FAQ

Links

Contact Us

Link to Us

MuSpy.com

MetalTabs.com logo

Bands

0-9

A

B

C

D

E

F

G

H

I

J

K

L

M

N

O

P

Q

R

S

T

U

V

W

X

Y

Z

Search

What

Where
 

Mourning Beloveth - "The Burning Man" Bass Tab

Plain Text Version
More Mourning Beloveth Tabs

Hits: 1162
Updated: 2009-02-02 04:52:07

 

By:

Paddy

sendpm.gif

email.gif

Important note
This tab is available online because we obtained explicit permission from Mourning Beloveth or their label.


#----------------------------------PLEASE NOTE---------------------------------#
#This file is the author's own work and represents their interpretation of the #
#song. You may only use this file for private study, scholarship, or research. #
#Unless specified otherwise, this is NOT an official tab from the band members.#
#------------------------------------------------------------------------------#

  Visit MetalTabs.com for more metal tablature
  
================================================================================
                       M O U R N I N G   B E L O V E T H

                                       -

                         T H E   B U R N I N G   M A N
================================================================================


                              A DISEASE FOR THE AGES
                         (c) Prophecy Productions - 2008
                        http://www.mourningbeloveth.com/


                              Tune Down 1 & 1/2 Steps
                                     C# F# B E

                                  Tempo =  60 BPM
                               Time Signature = 4/4



                          -----------------------------
                                 Transcribed by

                                 PADDY MCMULLAN
                           stinkypoohpants@yahoo.co.uk

                                   Version 1.0
                                25th January 2009
                             -----------------------

                             Tablature Symbols Used:


 p         -  Pull-Off
 h         -  Hammer-On
 (/)       -  Legato Slide (Blank space indicates length of slide)
 \         -  Slide Down to/Down From (Blank space indicates length of slide)
 /         -  Slide Up To/Up From (Blank space indicates length of slide)
 ( )       -  Ghost Note/Tied Note/Implied Note
 REST      -  Rest and sustain rest for duration of blank space
 |_3_|     -  Triplet notes



================================================================================
Intro: Play once
================================================================================


||------------4---------|-------------------------|
||-------2---------2----|-------------------------|
||----------------------|--------------0--2--2----|
||--0-------------------|--0--0--0--3-------------|

                                            |_3_|
|------------4---------|-----------------------------|
|-------2---------2----|-----------------------------|
|----------------------|--------------0--2--0-2-0----|
|--0-------------------|--0--0--0--3--------------3--|


|----------------------|-------------------------|----------------------|
|-------2----5----2----|--2--2--2--0--2--5--4----|-------2----5----2----|
|----------------------|-------------------------|----------------------|
|--0-------------------|-------------------------|--0-------------------|


|--------------------------||
|--2--2--2--0--2--5--4--2--||
|--------------------------||
|--------------------------||



On the last bar the tempo increases to 68 BPM



================================================================================
Riff 1: Play once
================================================================================


||----------------------|----------------------|-----------------------|
||-------2--------------|----------------------|------------2----------|
||--3----------------3--|--2----2--------------|-------2---------3--3--|
||----------------------|------------3----2----|--0--------------------|


|------------------------|-----------------------|------------------------||
|----------2-------------|------------2----------|----------2-------------||
|-------2-------2--0--3--|-------2---------3--3--|-------2-------2--3--5--||
|--0---------------------|--0--------------------|--0---------------------||



================================================================================
Riff 2: Play once [ Tempo = 74 BPM ]
================================================================================


||----------------------|-------------------------|
||----------------------|-------------------------|
||------------2---------|--------------0--2--2----|
||--0----0---------0----|--0--0--0--3-------------|


|----------------------|-------------------------------|
|----------------------|-------------------------------|
|------------2---------|--------------0--2--0-2-0------|
|--0----0---------0----|--0--0--0--3--------------3- \-|


|----------------------|-------------------------|----------------------|
|----------------------|-------------------------|----------------------|
|----------------------|-------------------------|----------------------|
|--0----0----3----0----|--0--0--0--0--0--3--2----|--0----0----3----0----|

                     |_3_| |_3_|
|--------------------------------||
|--------------------------------||
|--------------------------------||
|--0--0--0--0--0--3--2h3-2-0h2-0-||



================================================================================
Play Riff 1 once
================================================================================

================================================================================
Play Riff 2 once
================================================================================

================================================================================
Play Riff 1 once
================================================================================

================================================================================
Play Riff 2 once
================================================================================

================================================================================
Play Riff 1 once
================================================================================

================================================================================
Riff 3: Play 6 times [ Tempo = 68 BPM ]
================================================================================


||-----------------------|-------------------------|
||-----------------------|-------------------------|
||-------------7------7--|--7---(7)---7----10--- \-|
||--0------0-0-----------|-------8-----------------|


|-----------------------|-------------------------------| |
|-----------------------|-------------------------------|*|
|-------------7------7--|--7----------------------------|*|
|--0------0-0-----------|-----8--8--8--8--10--10--10-10-| |



================================================================================
Riff 4: Play 6 times [ Tempo = 60 BPM ]
================================================================================


||----------------------|-----------------------|---------------------|
||----------------------|-----------------------|---------------------|
||----------------------|-----------------------|-----------3------2--|
||--0------0--0----0----|--0------0--0----3--2--|--0------------------|


|----------------------|----------------------| |
|----------------------|----------------------|*|
|----------------------|--5------5--5---------|*|
|--3------3--3----2----|-----------------2----| |



================================================================================
Riff 5: Play once [ Tempo = 70 BPM ]
================================================================================


  1                   2                   3
||-------------------|-------------------|-------------------|
||-------------------|-------------------|-------------------|
||-------------------|-------------------|-------------------|
||--0----------------|--0----------------|--0----------------|

 4                   5                   6
|-------------------|-------------------|----------------------|
|-------------------|-------------------|----------------------|
|-------------------|-------------------|------------------0-2-|
|--0----------------|--0----------------|--0-------------------|

 7                      8                   9
|----------------------|-------------------|-------------------|
|----------------------|-------------------|-------------------|
|--3------2------------|-------------------|-------------------|
|----------------3--2--|--0----------------|--0----------------|

 10                  11                  12
|-------------------|-------------------|-------------------|
|-------------------|-------------------|-------------------|
|-------------------|-------------------|-------------------|
|--0----------------|--0----------------|--0----------------|

 13                  14                  15
|-------------------|-------------------|-------------------|
|-------------------|-------------------|-------------------|
|-------------------|-------------------|-------------------|
|--0----------------|--0----------------|--0----------------|

 16                  17                     18
|-------------------|----------------------|----------------------|
|-------------------|----------------------|----------------------|
|-------------------|------------------0-2-|--3------2------------|
|--0----------------|--0-------------------|----------------3--2--|

 19                     20                     21
|----------------------|----------------------|----------------------|
|----------------------|----------------------|----------------------|
|--7------7--7------7--|--7------7--7------7--|--7------7--7------7--|
|--0------0--0------0--|--0------0--0------0--|--0------0--0------0--|

 22
|----------------------||
|----------------------||
|--7------7--7------7--||
|--0------0--0------0--||



================================================================================
Play riff 2 once
================================================================================

================================================================================
Play Riff 1 once
================================================================================

================================================================================
Play Riff 2 once
================================================================================

================================================================================
Play Riff 1 once
================================================================================

================================================================================
Outro: Play 8 times [ Tempo = 72 BPM ]
================================================================================


||-------------------|-------------------|-------------------|
||-------------------|-------------------|-------------------|
||--7----------------|--7----------------|--7----------------|
||--0----------------|--0----------------|--0----------------|


|----------------------------|/|------------------------|
|----------------------------|/|------------------------|
|----------------------------|/|-----7--7--7----9--9----|
|--7--7-7-7--7-7-7--5--3--2--|/|--0---------------------|


|------------------------|------------------------|
|-------------------4----|------------------------|
|-----7--7--9----5-------|-----7--7--7----9--9----|
|--0---------------------|--0---------------------|


|----------------------------| |
|----------------------------|*|
|----------------------------|*|
|--7--7-7-7--7-7-7--5--3--2--| |



Play the first 4 bars the first time only



After the last repeat, end the song on the following:



||-----------||
||-----------||
||-----------||
||--0--------||



================================================================================
End
================================================================================


Tab summary:        Intro x 1
                    Riff 1 x 1
                    Riff 2 x 1
                    Riff 1 x 1
                    Riff 2 x 1
                    Riff 1 x 1
                    Riff 2 x 1
                    Riff 1 x 1
                    Riff 3 x 6
                    Riff 4 x 6
                    Riff 5 x 1
                    Riff 2 x 1
                    Riff 1 x 1
                    Riff 2 x 1
                    Riff 1 x 1
                    Outro x 8

                    END

  Visit MetalTabs.com for more metal tablature

bottom separator

Contact Us | Privacy Policy | Disclaimer | Legal Notice
Copyright © 2001-2014 MetalTabs.com. All Rights Reserved.