top separator

Home

Forum

What's New

Submit a Tab

FAQ

Links

Contact Us

Link to Us

MetalTabs.com logo

Bands

0-9

A

B

C

D

E

F

G

H

I

J

K

L

M

N

O

P

Q

R

S

T

U

V

W

X

Y

Z

Search

What

Where
 

Mourning Beloveth - "The Burning Man" Guitar Tab

Plain Text Version
More Mourning Beloveth Tabs

Hits: 1333
Rated: 5.00 out of 5 (1 vote)
Updated: 2009-01-24 08:17:05

 

By:

Paddy

sendpm.gif

email.gif

Important note
This tab is available online because we obtained explicit permission from Mourning Beloveth or their label.


#----------------------------------PLEASE NOTE---------------------------------#
#This file is the author's own work and represents their interpretation of the #
#song. You may only use this file for private study, scholarship, or research. #
#Unless specified otherwise, this is NOT an official tab from the band members.#
#------------------------------------------------------------------------------#

  Visit MetalTabs.com for more metal tablature
  
================================================================================
                       M O U R N I N G   B E L O V E T H

                                       -

                         T H E   B U R N I N G   M A N
================================================================================


                              A DISEASE FOR THE AGES
                         (c) Prophecy Productions - 2008
                        http://www.mourningbeloveth.com/


                              Tune Down 1 & 1/2 Steps
                                  C# F# B E G# C#

                                  Tempo =  60 BPM
                               Time Signature = 4/4



                          -----------------------------
                                 Transcribed by

                                 PADDY MCMULLAN
                           stinkypoohpants@yahoo.co.uk

                                   Version 1.0
                                23rd January 2009
                             -----------------------

                             Tablature Symbols Used:


 P.M...    -  Palm Mute
 p         -  Pull-Off
 h         -  Hammer-On
 (/)       -  Legato Slide (Blank space indicates length of slide)
 \         -  Slide Down to/Down From (Blank space indicates length of slide)
 /         -  Slide Up To/Up From (Blank space indicates length of slide)
 ( )       -  Ghost Note/Tied Note/Implied Note
 REST      -  Rest and sustain rest for duration of blank space
 |_3_|     -  Triplet notes
 ~~        -  Vibrato



================================================================================
Intro: Guitars 1 & 2 with Heavy Distortion (Play once)
================================================================================


||-------------------|---------------------|-------------------|
||--R-             --|--------R-          -|-------------------|
||--E-             --|--------E-          -|-------------------|
||--S-             --|--------S-          -|--2----------------|
||--T-             --|--2--2--T-          -|--2----------------|
||-------------------|--0--0---------------|--0----------------|
                        P.M.

|---------------------|-------------------|---------------------|
|--------R-          -|-------------------|--------R-          -|
|--------E-          -|-------------------|--------E-          -|
|--------S-          -|--2----------------|--------S-          -|
|--2--2--T-          -|--2----------------|--2--2--T-          -|
|--0--0---------------|--0----------------|--0--0---------------|
   ....                                      ....

                      *                     |_3_|
|-------------------|--------------------------------||
|-------------------|--------------------------------||
|-------------------|--------------------------------||
|--2----------------|--------2--0--(2 / 5)--4h5p4-2--||
|--2----------------|--2--2--------------------------||
|--0----------------|--0--0--------------------------||
                       ....



* At this point the tempo increases to 66 BPM



================================================================================
Riff 1a: Guitar 1 (Play once)
================================================================================


||------------------------|---------------------------|
||------------------------|---------------------------|
||------------------------|---------------------------|
||------------------------|---------------------------|
||--3---------------3--2--|--2--2----0h 2-2-----------|
||------------------------|------------------3--2~~---|
                    ....

|-------------------------|---------------------------|
|-------------------------|---------------------------|
|-------------------------|---------------------------|
|------------2------------|---------------------------|
|--2----2--------(2/3)-3--|--3--2~~-----------0-(2/3)-|
|--0----------------------|----------------3----------|

                                  |__3__|      |__3__|       |__3__|
|--------------------------|------------------------------------------------||
|--------------------------|------------------------------------------------||
|--------------------------|------------------------------------------------||
|-------------2------------|------------------------------------------------||
|--2-(2)---2------(2/3)-3--|--3--(3h 5p 3\2)--(2h 3p 2p 0)--(0h 2p 0)-------||
|-----0--------------------|------------------------------------------3--2--||



================================================================================
Riff 1b: Guitar 2 (Play once)
================================================================================


||------------------------|---------------------------|
||------------------------|---------------------------|
||------------------------|---------------------------|
||--2----2----5----2--2-2-|-(2\1)----2----5----4--  \-|
||--3---------------------|-------2--2----------------|
||------------------------|---------------------------|


|-----------------------|--------------------------|-----------------------|
|-----------------------|--------------------------|-----------------------|
|-----------------------|--------------------------|-----------------------|
|------------2----------|----------2---------------|----------2------------|
|--2----2---------2--3--|--2----2-------2--2-(2/3)-|--2----2---------2--3--|
|--0--------------------|--0-----------------------|--0--------------------|


|------------------------||
|------------------------||
|------------------------||
|----------2-------------||
|--2----2-------2--3--5--||
|--0---------------------||



================================================================================
Riff 2a: Guitar 1 (Play once) [ Tempo = 68 BPM ]
================================================================================


||---------------------------|-------------------------|
||---------------------------|-------------------------|
||---------------------------|-------------------------|
||--------------9~~----------|--------------2--4--4----|
||--2---(5/7)---------7--  \-|--2--2--2--5--0--2--2----|
||--0------------------------|--0--0--0--3-------------|
   ...                          ....

                                                 |__3__|
|---------------------------|---------------------------------|
|---------------------------|---------------------------------|
|---------------------------|---------------------------------|
|--------------9~~----------|--------------2--4---------------|
|--2---(5/7)---------7--  \-|--2--2--2--5--0--2-(0h 2p 0)-5 \-|
|--0------------------------|--0--0--0--3-----------------3 \-|
  ...                          ....


|---------------------------|-------------------------------|
|---------------------------|-------------------------------|
|---------------------------|-------------------------------|
|--------------5~~----------|-------------------------------|
|--2---(5/7)---------7--  \-|--2--2--7--5--7-(7/10)-9~~-  \-|
|--0------------------------|--0--0-------------------------|
                               ....

                                                     |__3___|   |__3__|
|---------------------------|--------------------------------------------||
|---------------------------|--------------------------------------------||
|---------------------------|--------------------------------------------||
|--------------5~~----------|--------------------------------------------||
|--2---(5/7)---------7--  \-|--2--2--7--5--7-(7/10)-(9h 10p 9)\(7h 9p 7)-||
|--0------------------------|--0--0--------------------------------------||
                               ....



From the second bar onwards the tempo gradually increases to 74 BPM



================================================================================
Riff 2b: Guitar 2 (Play once)
================================================================================


||---------------------------|------------------------------|
||---------------------------|------------------------------|
||---------------------------|-----------0--2--2h4--4~~-  \-|
||--------------9~~----------|--------2---------------------|
||--2---(5/7)---------7--  \-|--2--2------------------------|
||--0------------------------|--0--0------------------------|
   ...                          ....
                                                    |__3__|
|---------------------------|-------------------------------------|
|---------------------------|-------------------------------------|
|---------------------------|-------------------------------------|
|--------------9~~----------|-----------5--7-(7/9)-(7h 9p 7)-5- \-|
|--2---(5/7)---------7--  \-|--2--2--7----------------------------|
|--0------------------------|--0--0-------------------------------|
  ...                          ....

|------------------------|-------------------------|
|------------------------|-------------------------|
|------------------------|-------------------------|
|------------------------|-------------------------|
|--2---(5/7)---5----2----|--2--2--7--5--7--5--4----|
|--0-----------3----0----|--0--0-----------3--2----|
                            ....          ...
                                                  |__3___|
|------------------------|--------------------------------------||
|------------------------|--------------------------------------||
|------------------------|--------------------------------------||
|------------------------|--------------------------------------||
|--2---(5/7)---5----2----|--2--2--7--5--7-(7/10)-(9h 10p 9)-7 \-||
|--0-----------3----0----|--0--0--------------------------------||
                            ....



================================================================================
Guitars 1 & 2 play Riff 1 once
================================================================================

================================================================================
Guitars 1 & 2 play Riff 2 once
================================================================================

================================================================================
Guitars 1 & 2 play Riff 1 once
================================================================================

================================================================================
Guitars 1 & 2 play Riff 2 once
================================================================================

================================================================================
Guitars 1 & 2 play Riff 1 once
================================================================================

================================================================================
Riff 3a: Guitar 1 (Play 6 times)
================================================================================


||-------------------------|-------------------------|
||-------------------------|-------------------------|
||---------------4------4--|--4---(4)---4------------|
||--2------------2------2--|--2----2----2----5~~-  \-|
||--2------2--2--2------2--|--2----3----2------------|
||--0------0--0------------|-------------------------|
           ....

|-------------------------|------------------------------| |
|-------------------------|------------------------------| |
|---------------4------4--|--4---------------------------|*|
|--2------------2------2--|--2--2--2--5--5 / 7--7--7--7--|*|
|--2------2--2--2------2--|--2--3--3--3--3 / 5--5--5--5--| |
|--0------0--0------------|-----------3--3 / 5--5--5--5--| |
          ....                  ....        ...    ....



================================================================================
Riff 3b: Guitar 2 (Play 3 times)
================================================================================


||-------------------------|-------------------------|
||-------------------------|-------------------------|
||---------------4------4--|--4---(4)---4------------|
||--2------------2------2--|--2----2----2----5~~-  \-|
||--2------2--2--2------2--|--2----3----2------------|
||--0------0--0------------|-------------------------|
           ....
                                     |__3__|
|------------------------------|---------------------------------|
|---------5--3-----------------|---------------------------------|
|---------------4~~---4---2h 4-|--5-(4h 5p 4)--------------------|
|--2---------------------------|--------------5 \ 2--4~~----  \--|
|--2---------------------------|---------------------------------|
|--0---------------------------|---------------------------------|
          ....

|-------------------------|-------------------------|
|-------------------------|-------------------------|
|---------------4------4--|--4---(4)---4------------|
|--2------------2------2--|--2----2----2----5~~-  \-|
|--2------2--2--2------2--|--2----3----2------------|
|--0------0--0------------|-------------------------|
          ....

|------------------------------|---------------------------| |
|---------5--3-----------------|-----3-(5 / 8)--7~~---- \--| |
|---------------4~~-----4-2h 4-|--5------------------------|*|
|--2---------------------------|---------------------------|*|
|--2---------------------------|---------------------------| |
|--0---------------------------|---------------------------| |
          ....



================================================================================
Riff 4a: Guitar 1 (Play 3 times) [ Tempo = 60 BPM ]
================================================================================


||--------------------|---------------------|---------------------|
||--------------------|---------------------|---------------------|
||--------------------|---------------------|---------------------|
||--------------------|---------------------|---------------------|
||--2------------0----|--2---------------0--|--2--------3------2--|
||--------------------|---------------3-----|---------------------|
                                        ...

|----------------------|--------------------|----------------------|
|----------------------|--------------------|----------------------|
|----------------------|--7-----------------|----------------------|
|-----------------4----|--7------------4----|----------------------|
|--(3/5)----------5----|--5------------5----|--2----------(2/3)----|
|----------------------|--------------------|--0-------------------|


|---------------------|---------------------|----------------------|
|---------------------|---------------------|----------------------|
|---------------------|---------------------|----------------------|
|---------------------|---------------------|-----------------4----|
|--2------------0-----|--2--------3------2--|-(3/5)-----------5----|
|------------------3--|---------------------|-(1/3)----------------|
                  ...

|-------------------------| |
|-------------------------| |
|--7---7-7-7--7-7---------|*|
|--7---7-7-7--7-7----4----|*|
|--5---5-5-5--5-5----5----| |
|-------------------------| |



================================================================================
Riff 4b: Guitar 2 (Play 3 times)
================================================================================


||--------------------|---------------------|---------------------|
||--------------------|---------------------|---------------------|
||--------------------|---------------------|---------------------|
||--2------------2----|--2------------2-----|--2--------5------5--|
||--2------------2----|--2------------2--2--|--2--------3------2--|
||--0------------0----|--0------------0--0--|--0------------------|
                                        ...

|--------------------|--------------------|----------------------|
|--------------------|--------------------|----------------------|
|--------------------|--7-----------------|----------------------|
|--5------------4----|--7------------4----|--2-------------------|
|--5------------5----|--5------------5----|--2----------(2/3)----|
|--------------------|--------------------|--0-------------------|


|---------------------|---------------------|--------------------|
|---------------------|---------------------|--------------------|
|---------------------|---------------------|--------------------|
|--2------------2-----|--2--------5------5--|--5------------4----|
|--2------------0--5--|--2--------3------2--|--5------------5----|
|--0---------------3--|--0------------------|--------------------|
                  ...

|-------------------------| |
|-------------------------| |
|--7---7-7-7--7-7---------|*|
|--7---7-7-7--7-7----4----|*|
|--5---5-5-5--5-5----5----| |
|-------------------------| |



================================================================================
Riff 5a: Guitars 1 & 2 (Play once) [ Tempo = 70 BPM ]
================================================================================


  1                   2                   3
||-------------------|-------------------|-------------------|
||-------------------|-------------------|-------------------|
||-------------------|-------------------|-------------------|
||--2----------------|--(2)--------------|--(2)--------------|
||--2----------------|--(2)--------------|--(2)--------------|
||--0----------------|--(0)--------------|--(0)--------------|

 4                   5                   6
|-------------------|-------------------|-----------------------|
|-------------------|-------------------|-----------------------|
|-------------------|-------------------|-----------------------|
|--(2)--------------|--(2)--------------|--(2)------------------|
|--(2)--------------|--(2)--------------|--(2)-------------0h 2-|
|--(0)--------------|--(0)--------------|--(0)------------------|

 7                        8                   9
|------------------------|-------------------|-------------------|
|------------------------|-------------------|-------------------|
|------------------------|-------------------|-------------------|
|------------------------|--2----------------|--(2)--------------|
|--3~~-----2~~-----------|--2----------------|--(2)--------------|
|------------------3--2--|--0----------------|--(0)--------------|

 10                  11                   12
|-------------------|--------------------|-------------------|
|-------------------|--------------------|-------------------|
|-------------------|--------------------|-------------------|
|--(2)--------------|--(2)---------------|--2----------------|
|--(2)--------------|--(2)---------------|--2----------------|
|--(0)--------------|--(0)---------------|--0----------------|

 13                  14                  15
|-------------------|-------------------|-------------------|
|-------------------|-------------------|-------------------|
|-------------------|-------------------|-------------------|
|--(2)--------------|--(2)--------------|--(2)--------------|
|--(2)--------------|--(2)--------------|--(2)--------------|
|--(0)--------------|--(0)--------------|--(0)--------------|

 16                  17                      18
|-------------------|-----------------------|------------------------|
|-------------------|-----------------------|------------------------|
|-------------------|-----------------------|------------------------|
|--(2)--------------|--(2)------------------|------------------------|
|--(2)--------------|--(2)-------------0h 2-|--3~~-----2~~-----5--4--|
|--(0)--------------|--(0)------------------|------------------3--2--|
                                                               ....
 19                        20
|-------------------------|-------------------------|
|-------------------------|-------------------------|
|-------------------------|-------------------------|
|--2----------------------|-------------------------|
|--2----------2/3)--3--2--|--(2)------------0--0h2--|
|--0----------------------|--------------3----------|

 21                        22                |__3__|
|-------------------------|---------------------------------| |
|-------------------------|---------------------------------| |
|-------------------------|---------------------------------|*|
|-------------------------|------2----4--5--(4h 5p 4)\2--4--|*|
|--(2)-------(2/3)--3--2--|-(2)-----------------------------| |
|-------------------------|---------------------------------| |



Over the course of this riff the tempo gradually increases to 76 BPM



================================================================================
Riff 5b: Guitar 3 with Clean Tone (Play twice)
================================================================================


* Let notes ring wherever possible *


  1                             2
||-----------------------------|-----------------------------|
||-----------------------------|-----------------------------|
||-----------------------------|-----------------------------|
||--------9------------7--7h9--|--------9------------7--7h9--|
||-----7-----7-----10----------|-----7-----7-----10----------|
||--0-----------0--------------|--0-----------0--------------|

 3                             4
|-----------------------------|---------------------------|
|-----------------------------|---------------------------|
|-----------------------------|---------------------------|
|--------9------------7--7h9--|--------9------------7-----|
|-----7-----7-----10----------|-----7-----7-----10-----9--|
|--0-----------0--------------|--0-----------0------------|

 5                          6
|--------------------------|--------------------------|
|--------------------------|--------------------------|
|--------------------------|--------------------------|
|--------5-----------5-----|--------5-----------5-----|
|-----7-----7-----7-----7--|-----7-----7-----7-----7--|
|--0-----------0-----------|--0-----------0-----------|

 7                          8
|--------------------------|----------------------------|
|--------------------------|----------------------------|
|--------------------------|----------------------------|
|--------5--------5--0-----|--------2-------------------|
|-----7--------7--------7--|-----2-----2-----2h3--3--2--|
|--0--------0--------------|--0-----------0-------------|


 9                         |__3__|   10
|-----------------------------------|----------------------------|
|-----------------------------------|----------------------------|
|-----------------------------------|----------------------------|
|--------2--------------------------|--------2-------------------|
|-----2-----2-----2h3--3--(2h 3p 2)-|-----2-----2-----2h3--3--2--|
|--0-----------0--------------------|--0-----------0-------------|

 11
|--------------------------| |
|--------------------------| |
|--------------------------|*|
|--------2-----------------|*|
|-----2-----2-----2--3--5--| |
|--0-----------0-----------| |



On the second repeat replace the 8th bar with the following:



|--------------------------|
|--------------------------|
|--------------------------|
|--------2-----------------|
|-----2-----2--------0--2--|
|--0-----------0--3--------|



================================================================================
Guitars 1 & 2 play Riff 2 once [ Tempo = 70 BPM ]
================================================================================

================================================================================
Guitars 1 & 2 play Riff 1 once [ Tempo = 74 BPM ]
================================================================================

================================================================================
Guitars 1 & 2 play Riff 2 once
================================================================================

================================================================================
Guitars 1 & 2 play Riff 1 once
================================================================================

================================================================================
Outro 1.1: Guitar 1 (Repeats outlined below) [ Tempo = 68 BPM ]
================================================================================


=======
Part I: x 1
=======


||--------------------------------|-----------------------------------|
||--------------------------------|-----------------------------------|
||--------------------------------|-----------------------------------|
||--------9-----------------------|--------9-----------------12~~--  \|
||-----7-(7)-9/10----9~~----------|-----7-(7)-9/10---9----9-----------|
||--0--------------------10~~-  \-|--0-----------------10-------------|
   ...                              ...
                    |__3___|
|---------------------------------------|
|---------------------------------------|
|---------------------------------------|
|--------9------------------------------|
|-----7-(7)-9/10---(9h 10p 9)~~---------|
|--0---------------------------10~~-  \-|
  ...
            |___3___|
|--------------------------------------||
|--------------------------------------||
|--------------------------------------||
|--------------------------------------||
|--7h 9-9-9-(9h 10p 9)-7-9-9~~----  \--||
|--------------------------------------||



On bar 4 the tempo increases to 72 BPM



========
Part II: x 7
========

                      |__3___|
||---------------------------------------|-----------------------------------|
||---------------------------------------|-----------------------------------|
||---------------------------------------|-----------------------------------|
||--------9------------------------------|--------9-----------------12~~-  \-|
||-----7-----9/10----(9h 10p 9)~~--------|-----7-----9/10---9----9-----------|
||--0---------------------------10~~-  \-|--0-----------------10-------------|
    ....                                    ....

|---------------------------------------|
|---------------------------------------|
|---------------------------------------|
|--------9------------------------------|
|-----7-----9/10----(9h 10p 9)~~--------|
|--0---------------------------10~~-  \-|
   ....

             |__3___|
|_____________________________________________[1]
|---------------------------------------------| |
|---------------------------------------------| |
|---------------------------------------------|*|
|------------------------------9h 10-9-7------|*|
|--7h 9-9-9-(9h 10p 9)-7-9-9~~-----------10-9-| |
|---------------------------------------------| |


            |___3___|
|______________________________________[2]
|--------------------------------------| |
|--------------------------------------| |
|--------------------------------------|*|
|--------------------------------------|*|
|--7h 9-9-9-(9h 10p 9)-7-9-9~~----  \--| |
|--------------------------------------| |


Last ending:

                     |__3___|                         |___3___|
|________________________________________________________________________[Final]
|--------------------------------------|---------------------------------------|
|--------------------------------------|---------------------------------------|
|--------------------------------------|---------------------------------------|
|-------9------------------------------|---------------------------------------|
|----7-----9/10----(9h 10p 9)~~-----10-|-(10\9)-9-9-(9h 10p 9)-7-9-9~~----7-9--|
|-0---------------------------10~~-----|---------------------------------------|


||-------------------|-------------------|-------------------|
||-------------------|-------------------|-------------------|
||-------------------|-------------------|-------------------|
||-------------------|-------------------|-------------------|
||--7----------------|--(7)--------------|--(7)--------------|
||-------------------|-------------------|-------------------|


|-------------------||
|-------------------||
|-------------------||
|-------------------||
|--(7)--------------||
|-------------------||



================================================================================
Outro 1.2: Guitar 2 (Repeats outlined below)
================================================================================


=======
Part I: x 1
=======


||----------------------|------------------------|----------------------|
||----------------------|------------------------|----------------------|
||----------------------|------------------------|----------------------|
||----------------------|------------------------|----------------------|
||--7-----------9--9----|--7-----------9---9-----|--7-----------9--9----|
||--0-----------0--0----|--0-----------10--10----|--0-----------0--0----|
                                       ......


|----------------------------||
|----------------------------||
|----------------------------||
|----------------------------||
|--9--9-9-9--9-9-9--7--5--4--||
|--7--7-7-7--7-7-7--5--3--2--||



========
Part II: x 7
========


||------------------------|--------------------------|
||------------------------|--------------------------|
||------------------------|--------------------------|
||------------------------|--------------------------|
||--7--7--7--7----9--9----|--7--7--7--7----9---9-----|
||--0--0--0--0----0--0----|--0--0--0--0----10--10----|
      ...        ...           ...         ..

|------------------------|----------------------------| |
|------------------------|----------------------------| |
|------------------------|----------------------------|*|
|------------------------|----------------------------|*|
|--7--7--7--7----9--9----|--9--9-9-9--9-9-9--7--5--4--| |
|--0--0--0--0----0--0----|--7--7-7-7--7-7-7--5--3--2--| |
     ...        ...



End on the following chord, holding until fade:



||-----------||
||-----------||
||-----------||
||--2--------||
||--2--------||
||--0--------||



================================================================================
End
================================================================================


Tab summary:        Intro x 1
                    Riff 1 x 1
                    Riff 2 x 1
                    Riff 1 x 1
                    Riff 2 x 1
                    Riff 1 x 1
                    Riff 2 x 1
                    Riff 1 x 1
                    Riff 3a x 6 + Riff 3b x 3
                    Riff 4 x 3
                    Riff 5a x 1 + Riff 5b x 2
                    Riff 2 x 1
                    Riff 1 x 1
                    Riff 2 x 1
                    Riff 1 x 1
                    Outro:
                          Part I x 1
                          Part II x 7

                    END

  Visit MetalTabs.com for more metal tablature

bottom separator

Contact Us | Privacy Policy | Disclaimer | Legal Notice
Copyright © 2001-2014 MetalTabs.com. All Rights Reserved.