top separator

Home

Forum

What's New

Submit a Tab

FAQ

Links

Contact Us

Link to Us

MuSpy.com

MetalTabs.com logo

Bands

0-9

A

B

C

D

E

F

G

H

I

J

K

L

M

N

O

P

Q

R

S

T

U

V

W

X

Y

Z

Search

What

Where
 

1349 - "Hellfire" Guitar Tab

Plain Text Version
More 1349 Tabs

Hits: 1428
Updated: 2008-12-22 04:12:55

 

By:

Sick Steve

sendpm.gif

email.gif

Important note
This tab is available online because we obtained explicit permission from 1349 or their label.


#----------------------------------PLEASE NOTE---------------------------------#
#This file is the author's own work and represents their interpretation of the #
#song. You may only use this file for private study, scholarship, or research. #
#Unless specified otherwise, this is NOT an official tab from the band members.#
#------------------------------------------------------------------------------#

  Visit MetalTabs.com for more metal tablature
  
Band:  1349
Album: Hellfire
Song:  Hellfire

Copyright (c)  Candlelight 2005

Version 1.0 - 20 December 2008

Transcribed By: Sick Steve


.  - palm mute           /  - slide up to
\  - slide down to       ~  - vibrato
h  - hammer on           b  - Bend
p  - pull off            Suffixes for bend
t  - tap                 f  - full bend    h - half bend
ph - pinched harmonic    q  - quarter bend t - tap bend
*  - see comment         ^  - Hold bend    r release bend
x  - Stuccatto           ~  - vibrato bend
,  - slight palm mute    () - ghost note, sustained note
"  - tremolo note        <> - Trill


Riff 1

Both Guitars

e|----------------------------------|
b|----------------------------------|
g|----------------------------------|
d|-4"--------------5"---------------|
a|-3"--------------2"---------------|
e|----------------------------------|


Riff 2

Both Guitars

e|---------------------------------|
b|---------------------------------|
g|---------------------------------|
d|-7"---------------9----10---4----|
a|-6"------------------------------|
e|------------------7----8----2----|


Riff 3

Both Guitars

e|-----------------------------------------|
b|-----------------------------------------|
g|-----------------------------------------|
d|-10-10-10-10-10-10-10-10-7-7-7-7-7-7-7-7-|
a|-12-12-12-12-12-12-12-12-9-9-9-9-9-9-9-9-|
e|-----------------------------------------|

e|-----------------------------------------|
b|-----------------------------------------|
g|-----------------------------------------|
d|-4--4--4--4--4--4--4--4--5-5-5-5-5-5-5-5-|
a|-6--6--6--6--6--6--6--6--7-7-7-7-7-7-7-7-|
e|-----------------------------------------|


Riff 4

Both Guitars

e|-----------------------------------------------|
b|-------------4-----4--------------4-----4------|
g|-------------7-----7--------------7-----7------|
d|-4--------------------4------------------------|
a|-3--3-3-3-3-----------3--3-3-3-3---------------|
e|-----------------------------------------------|
      . . . .              . . . .

e|-----------------------------------------------|
b|-----------8------8------------8------8--------|
g|-------11-----11-----------11-----11-----------|
d|----9-------------------9----------------------|
a|-7-------------------7-------------------------|
e|-----------------------------------------------|


Riff 5

Both Guitars

e|---------------------------------------------------------------------|
b|----------6-----------------6----------------------------------------|
g|-------7-----7-----------7-----7--------------0-----------------0----|
d|----5-----------5-----5-----------5--------4-----4-----------4-----4-|
a|-3-----------------3--------------------2-----------2-----2----------|
e|-------------------------------------0-----------------0-------------|


Riff 6.a

Guitar 1

e|---------------------------------------------|
b|---------------------------------------------|
g|----3"------3"------3"----2"------2"------2"-|
d|-5"------5"------5"----3"------3"------3"----|
a|---------------------------------------------|
e|---------------------------------------------|

e|-------------------------------------------------------------------|
b|-------------------------------------------------------------------|
g|----3"------3"------3"----2"---------0"---------2"------2"------2"-|
d|-5"------5"------5"----3"------3"-2"------0"-3"------3"------3"----|
a|-------------------------------------------------------------------|
e|-------------------------------------------------------------------|

e|---------------------------------------------|
b|---------------------------------------------|
g|----3"------3"------3"----2"------2"------2"-|
d|-5"------5"------5"----3"------3"------3"----|
a|---------------------------------------------|
e|---------------------------------------------|

e|---------------------------------------------|
b|---------------------------------------------|
g|----3"------3"------3"----2"---------0"------|
d|-5"------5"------5"----3"------3"-2"------0"-|
a|---------------------------------------------|
e|---------------------------------------------|


Riff 6.b

Guitar 2

e|--------------------------------------------------|
b|--------------------------------------------------|
g|--------------------------------------------------|
d|-8-"-----------------------------7"---------------|
a|-10"-----------------------------8"---------------|
e|--------------------------------------------------|

e|------------------------------------------------------------------|
b|------------------------------------------------------------------|
g|------------------------------------------------------------------|
d|-8-"-----------------------------7"------5"------7"---------------|
a|-10"-----------------------------8"------7"------8"---------------|
e|------------------------------------------------------------------|

e|--------------------------------------------------|
b|--------------------------------------------------|
g|--------------------------------------------------|
d|-8-"-----------------------------7"---------------|
a|-10"-----------------------------8"---------------|
e|--------------------------------------------------|

e|--------------------------------------------------|
b|--------------------------------------------------|
g|--------------------------------------------------|
d|-8-"-----------------------------7"------5"-------|
a|-10"-----------------------------8"------7"-------|
e|--------------------------------------------------|


Riff 7.a

Guitar 1

e|-------------------------------------------------------------|
b|-------------------------------------------------------------|
g|--------------------7"---------------------------------------|
d|-7"---8"---10"----------------10"---7"---8"---7"---2"---7"---|
a|-5"---5"---5-"------5"--------8-"---8"---7"---5"---3"---5"---|
e|-------------------------------------------------------------|


Riff 7.b

Guitar 2

e|------------------------------------------------------------|
b|------------------------------------------------------------|
g|-2"---3"---5"-------7"--------5"---2"---3"---2"---0"---2"---|
d|------------------------------------------------------------|
a|------------------------------------------------------------|
e|------------------------------------------------------------|

  Visit MetalTabs.com for more metal tablature

bottom separator

Contact Us | Privacy Policy | Disclaimer | Legal Notice
Copyright © 2001-2014 MetalTabs.com. All Rights Reserved.