top separator

Home

Forum

What's New

Submit a Tab

FAQ

Links

Contact Us

Link to Us

MetalTabs.com logo

Bands

0-9

A

B

C

D

E

F

G

H

I

J

K

L

M

N

O

P

Q

R

S

T

U

V

W

X

Y

Z

Search

What

Where
 

Tankard - "Dark Exile" Guitar Tab

Plain Text Version
More Tankard Tabs

Hits: 2172
Rated: 5.00 out of 5 (1 vote)
Updated: 2008-12-08 02:31:10

 

By:

MetalThrashingMad

sendpm.gif

email.gif

Important note
This tab is available online because we obtained explicit permission from Tankard or their label.


#----------------------------------PLEASE NOTE---------------------------------#
#This file is the author's own work and represents their interpretation of the #
#song. You may only use this file for private study, scholarship, or research. #
#Unless specified otherwise, this is NOT an official tab from the band members.#
#------------------------------------------------------------------------------#

  Visit MetalTabs.com for more metal tablature
  
================================================================================
                                  Dark Exile
                             As recorded by Tankard
                       (From the 2000 album KINGS OF BEER)
                        Copyright (c) 2000 Century Media

                                                   _______________________
Transcribed by:                                   | KEY:                  |
                    Steve Rubaszek                |                       |
                                                  | _  = Palm mute        |
Email:                                            |                       |
                    Thrasher502@hotmail.com       | \/ = slide down/up    |
                                                  |                       |
Version:                                          | ~~ = vibrato          |
                    1.0 - December 6, 2008        |_______________________|

Tuning:
                    Eb Ab Db Gb Bb Eb


 Intro 0:00 x2
|-------------------|-------------------|
|-------------------|-------------------|
|-------------------|-------------------|
|-------------------|-------------------|
|------2-3------2-3-|------2-3------3---|
|-0-00-----0-00-----|-0-00-----0-00---1-|
  ____     ____       ____     ____


 Riff 1 - 0:07 x2
|-------------------|-------------------|
|-------------------|-------------------|
|-------------------|-------------------|
|------4-5------4-5-|------4-5------5---|
|------2-3------2-3-|------2-3------3-3-|
|-0000-----0000-----|-0000-----0000---1-|
  ____     ____       ____     ____


 Riff 2 - 0:15
|---------------------|--------------------|
|---------------------|--------------------|
|---------------------|--------------------|
|---------------------|----------------5---|
|---------------------|----------------3-3-|
|-0000-0000-0000-0000-|-0000-0000-0000---1-|
  ___________________   ______________

|---------------------|-------------------|-------------|
|---------------------|-------------------|-------------|
|---------------------|-----------5-------|-------------|
|---------------------|-----------3-4-5---|-------------|
|---------------------|-------------2-3-4-|-5----7---8\-|
|-0000-0000-0000-0000-|-0000-0000-------2-|-3----5---6\-|
  ___________________   _________


 Repeat Riff 1 - 0:24 x2
 Repeat Riff 2 - 0:32 x2


 Chorus - 0:42 x4
|---------------------------|-----------------------------|
|---------------------------|-----------------------------|
|---------------------------|-5------5------5------5------|
|-2------2------2------4----|-5------5------5------5--3---|
|-2------2------2------2-2--|-3--3-3-3--3-3-3--3-3-3--1p0-|
|-0--0-0-0--0-0-0--0-0------|-----------------------------|
     ___    ___    ___   _       ___    ___    ___

|---------------------------|-----------------------------|
|---------------------------|-----------------------------|
|---------------------------|-----------------------------|
|-3------3------3------5-4--|-5------5------5-------------|
|-3------3------3------3-2--|-5------5------5------5/6\5--|
|-1--1-1-1--1-1-1--1-1------|-3--3-3-3--3-3-3--3-3-3/4\3--|
     ___    ___    ___           ___    ___    ___


 Repeat intro - 1:16 x2
 Repeat riff 1 - 1:23 x2
 Repeat riff 2 - 1:33 x2
 Repeat riff 1 - 1:40 x2
 Repeat riff 2 - 1:49 x2
 Repeat chorus - 1:58 x4
 Repeat riff 2 - 2:32 x2


 Riff 3 - 2:40 x2
|---------------------|-------------------|
|---------------------|-------------------|
|---------------------|-----------8-7-----|
|---------------------|-----------6-5-8-7-|
|---------------------|---------------6-5-|
|-3333-3333-3333-3333-|-3333-3333---------|
  ___________________   _________


 Repeat riff 2 - 2:48 x2
 Repeat intro - 2:57 x2
 Repeat riff 1 - 3:04 x2
 Repeat riff 2 - 3:11 x2
 Repeat riff 1 - 3:22 x2
 Repeat riff 2 - 3:30 x2
 Repeat chorus - 3:40 x4
 Repeat intro - 4:14
 Repeat riff 2 - 4:18 x2


 Tremelo open E for about 24 bars


END

  Visit MetalTabs.com for more metal tablature

bottom separator

Contact Us | Privacy Policy | Disclaimer | Legal Notice
Copyright © 2001-2014 MetalTabs.com. All Rights Reserved.