top separator

Home

Forum

What's New

Submit a Tab

FAQ

Links

Contact Us

Link to Us

MetalTabs.com logo

Bands

0-9

A

B

C

D

E

F

G

H

I

J

K

L

M

N

O

P

Q

R

S

T

U

V

W

X

Y

Z

Search

What

Where
 

Arghoslent - "The Grenadier" Guitar Tab

Plain Text Version
More Arghoslent Tabs

Hits: 2066
Rated: 5.00 out of 5 (1 vote)
Updated: 2008-12-08 02:23:39

 

By:

Argamocrypt

sendpm.gif

email.gif

Important note
This tab is available online because we obtained explicit permission from Arghoslent or their label.


#----------------------------------PLEASE NOTE---------------------------------#
#This file is the author's own work and represents their interpretation of the #
#song. You may only use this file for private study, scholarship, or research. #
#Unless specified otherwise, this is NOT an official tab from the band members.#
#------------------------------------------------------------------------------#

  Visit MetalTabs.com for more metal tablature
  
Band:  Arghoslent
Album: Hornets of the Pogrom
Song:  The Grenadier

arghoslent.cjb.net

Copyright (c) Drakkar Productions 2008
Version 1.0 - 11/25/2008

Transcribed By: Zach Kraemer
Email:          tiberian710@aol.com


.  - palm mute           b  - Bend
/  - slide up to         r  - release bend
\  - slide down to       ~  - vibrato bend
~  - vibrato             =  - let ring
h  - hammer on           "  - tremolo note
p  - pull off            [] - natural harmonic
<> - pinch harmonic

Tuning: DGCFAD

NOTE: Be sure to distinguish between normal power chords and inverted
      power chords, as there are lots of changes between the two in this
      song.

Normal power Chord      Inverted power Chord
|------|                |------|
|------|                |------|
|------|                |------|
|-7----|                |-7----|
|-7----|                |-5----|
|-5----|                |-5----|

 Riff 1
|--------------------------------------------------------------------|
|--------------------------------------------------------------------|
|--------------------------------------------------------------------|
|-9-----9------5---------------------9-----9------5---7-9-12-11-9-7--|
|---7-777--5-7---7----5----------------7-777--5-7---7-5-7-10--9-7-5--|
|------------------00---00-5-00-3-00------------------5-7-10--9-7-5--|
pm    ..           ..   ..   ..   ..     ..

 Riff 1a
|--------------------------------------------------------------------|
|--------------------------------------------------------------------|
|--------------------------------------------------------------------|
|-9-----9------5---------------------9-----9------5------------------|
|---7-777--5-7---7----5----------------7-777--5-7---7----------------|
|------------------00---00-5-00-3-00------------------[555-444-333]--|
pm    ..           ..   ..   ..   ..     ..

 Riff 1b
|-----------------------------------------------------|
|-----------------------------------------------------|
|-----------------------------------------------------|
|-9-----9------5---------------------9-----9------5---|
|---7-777--5-7---7----5----------------7-777--5-7---7-|
|------------------00---00-5-00-3-00------------------|
pm    ..           ..   ..   ..   ..     ..

 Riff 2
|---------------------------------------------------|
|---------------------------------------------------|
|---------------------------------------------------|
|-9-7-4-7-4--4-7-4-7/4---7-7--7--7---------5--------|
|-7-5-2-5-2--2-5-2-5/2---5-5--7--7---------5---5/7~-|
|-7-5-2-5-2--2-5-2-5/2---5-5--5--5-5h7p5p0-3-0------|

 Riff 3
|---------------------------------|
|---------------------------------|
|---------------------------------|
|-9-----9------5------------------|
|---7-777--5-7---7----------------|
|------------------[555-444-333]--|
pm    ..

 Fill 1
|-------------------------------------------------------------------|
|-------------------------------------------------------------------|
|-------------------------------------------------------------------|
|-9-----9------5---------------------9-----9------5---[drum sticks]-|
|---7-777--5-7---7----5----------------7-777--5-7---7---------------|
|------------------00---00-5-00-3-00--------------------------------|
pm    ..           ..   ..   ..   ..     ..

 Riff 4
|-----------------------------------------------------------------|
|-----------------------------------------------------------------|
|-----------------------------------------------------------------|
|-2-2-2-2-0-0-0-0-0-0-0-0-0-0-0-0-2-2-2-2-0-0-0-0-0-0-0-0-0-0-0-0-|
|-3-3-3-3-2-2-2-2-0-0-0-0-0-0-0-0-3-3-3-3-2-2-2-2-0-0-0-0-0-0-0-0-|
|-5-5-5-5-3-3-3-3-1-1-1-1-1-1-1-1-5-5-5-5-3-3-3-3-1-1-1-1-1-1-1-1-|
|
|Riff 4a
|-----------------------------------------------------------------|
|-----------------------------------------------------------------|
|-----------------------------------------------------------------|
|-----------------------------------------------------------------|
|-3-3-3-3-2-2-2-2-0-0-0-2p0-0-0-0-3-3-5-3-2-2-3-2/5-5-3p2-0-0-0-0-|
|-----------------------------------------------------------------|

 Riff 5
|---------------------------------------------|
|---------------------------------------------|
|---------------------------------------------|
|---------------------------------------------|
|-3---2---0---2p0---3--5p3-2--3p2-/5-3p2-0----|
|---------------------------------------------|
|
|Riff 5a
|---------------------------------------------|
|---------------------------------------------|
|---------------------------------------------|
|---------------------------------------------|
|-0-----------------0-------------------------|
|-----3---1----------------3-------1----------|

 Riff 6
|---------------------------------------------------------------|
|---------------------------------------------------------------|
|---------------------------------------------------------------|
|-7----------------------------7--------------------------------|
|-0--7p5-7p5-8p7-8p7-10p8-10p8-0--8p7-8p7-10p8-10p8-12p10-12p10-|
|---------------------------------------------------------------|

 Riff 7
|---------------------------------|
|---------------------------------|
|---------------------------------|
|-7-7-7-7-5--5--4-5-5-5-5-5--5--5-|
|-7-7-7-7-3--3--2-5-5-5-5-3--3--5-|
|-5-5-5-5-3--3--2-3-3-3-3-3--3--3-|

 Riff 8 (Under Solo)
|--------------------------------------------------------------|
|-----5--------5-----------------------------------------------|
|-----5--------5-----------------------------------------------|
|-7---7--5-7---7--5-5--5--5--5--9--7-5-7-5-5----7--5-4-5-4-5-4-|
|-7------3-7------3-5--5--5--5--7--5-3-5-3-5----5--3-2-3-2-5-2-|
|-5------3-5------3-3--3--3--3--7--5-3-5-3-3----5--3-2-3-2-3-2-|

The solo is just several long notes with improvised articulation with
the tremolo abr, and is thus pointless to transcribe.

 Riff 9
|-----------------------------------------------------------------|
|-----------------------------------------------------------------|
|---------------------------------2-2-4-2-5-5-4-2-5-5-4-2-4-4-4-4-|
|---------------------------------3-3-3-3-3-3-3-3-2-2-2-2-2-2-2-2-|
|-3-3-7-3-8-8-7-5-7-7-5-3-5-5-5-5---------------------------------|
|-5-5-5-5-5-5-5-5-3-3-3-3-3-3-3-3---------------------------------|

 Riff 9 (cont'd)
|-------------------------------------------------------------------|
|-------------------------------------------------------------------|
|-5-5-9-5-10-10-9-7-9-9-7-5-7-7-7-7-2-2-4-2-5-5-4-2-5-5-4-0-2-2-2-2-|
|-7-7-7-7-7--7--7-7-5-5-5-5-5-5-5-5-3-3-3-3-3-3-3-3-2-2-2-2-2-2-2-2-|
|-------------------------------------------------------------------|
|-------------------------------------------------------------------|

 Riff 10
|-----------------------------------------------------------------|
|-----------------------------------------------------------------|
|-----------------------------------------------------------------|
|------------7p5--------------------------7-9-/12\10-10--5--------|
|----------------8-7-5-------7777<7>-7777-5-7-/10\8--8---3--2p0---|
|-8p5-555555-----------8-7-5------------------------------------3-|

Final Chord
|------|
|------|
|------|
|-7----|
|-7----|
|-5----|

Structure:
Riff 1           x1
Riff 1a          x1
Riff 1           x1
Riff 1b          x1
Riff 2           x2
Riff 3           x4
Riff 1           x1
Fill 1           x1
Riff 1           x1
Riff 1b          x1
Riff 2           x2
Riff 4 & 4a      x2
Riff 5 & 5a      x1
Riff 4 & 4a      x1
Riff 6           x1
Riff 7           x8
Riff 4 & 4a      x2
Riff 5 & 5a      x1
Riff 4 & 4a      x1
Riff 6           x1
Riff 7           x8
Solo over Riff 8 x4
Riff 9           x2
Riff 10          x4
Riff 9           x2
Riff 10          x4
Final Chord

  Visit MetalTabs.com for more metal tablature

bottom separator

Contact Us | Privacy Policy | Disclaimer | Legal Notice
Copyright © 2001-2014 MetalTabs.com. All Rights Reserved.