top separator

Home

Forum

What's New

Submit a Tab

FAQ

Links

Contact Us

Link to Us

MuSpy.com

MetalTabs.com logo

Bands

0-9

A

B

C

D

E

F

G

H

I

J

K

L

M

N

O

P

Q

R

S

T

U

V

W

X

Y

Z

Search

What

Where
 

Tankard - "Notorious Scum" Guitar Tab

Plain Text Version
More Tankard Tabs

Hits: 1726
Updated: 2008-12-08 02:15:12

 

By:

MetalThrashingMad

sendpm.gif

email.gif

Important note
This tab is available online because we obtained explicit permission from Tankard or their label.


#----------------------------------PLEASE NOTE---------------------------------#
#This file is the author's own work and represents their interpretation of the #
#song. You may only use this file for private study, scholarship, or research. #
#Unless specified otherwise, this is NOT an official tab from the band members.#
#------------------------------------------------------------------------------#

  Visit MetalTabs.com for more metal tablature
  
================================================================================
                                 Notorious Scum
                             As recorded by Tankard
                          (From the 2002 album B-DAY)
                        Copyright (c) 2002 AFM Records

                                                   _______________________
Transcribed by:                                   | KEY:                  |
                    Steve Rubaszek                |                       |
                                                  | _  = Palm mute        |
Email:                                            |                       |
                    Thrasher502@hotmail.com       | \/ = slide down/up    |
                                                  |                       |
Version:                                          | ~~ = vibrato          |
                    1.0 - November 22, 2008       |_______________________|

Tuning:
                    Eb Ab Db Gb Bb Eb


 Riff 1 - 0:03 x2
|---------------------------------|-----------------------------|
|---------------------------------|-----------------------------|
|---------------------------------|-----------------------------|
|---------------------------------|-----------------------------|
|---------7-------6-------5-------|---------7-------6-------5~~-|
|-0-0-0-0---0-8-0---0-7-0---0-6-0-|-0-0-0-0---0-8-0---0-7-0-----|
  _______   _____   _____   _____   _______   _____   _____


 Riff 2 - 0:12 x2
|--------------------------------|----------------------------|
|--------------------------------|----------------------------|
|--------------------------------|----------------------------|
|--------------------------------|----------------------------|
|--------7-------6-------5-------|--------7-------6-------5~~-|
|-000000---0-8-0---0-7-0---0-6-0-|-000000---0-8-0---0-7-0-----|
  ______   _____   _____   _____   ______   _____   _____


 Riff 3 - 0:22 x2
|-----------------------------|----------------------------|
|-----------------------------|----------------------------|
|-----------------------------|----------------------------|
|---------9--------------8----|---------9------8-----7-----|
|---------7-10-----------6-9--|---------7--10--6--9--5--8--|
|-0-0-0-0---8----0-0-0-0---7--|-0-0-0-0----8------7-----6--|
  _______        _______        _______
|-----------------------------|--------------------------|
|-----------------------------|--------------------------|
|-----------------------------|--------------------------|
|---------9--------------7----|---------9------8-----7~~-|
|---------7-10-----------5-8--|---------7--10--6--9--5~~-|
|-0-0-0-0---8----0-0-0-0---6--|-0-0-0-0----8------7------|
  _______        _______        _______


 Riff 4 - 0:39 x2
|-------------------------------|------------------------------|
|-------------------------------|------------------------------|
|-------------------------------|------------------------------|
|-----------------2-1-0---------|-----------------2-1-0--------|
|---------------4-------0-3-2-0-|---------------4-------2-0-5--|
|-222222-222222-2---------------|-222222-222222-2-----------3--|
  _____________   _____________   _____________   _________


 Riff 5 - 0:48 x2
|------------------------------|------------------------------|
|------------------------------|------------------------------|
|------------------------------|------------------------------|
|---------------2-1-0----------|---------------2-1-0----------|
|---------------------0-3-2-0--|---------------------2-0-5----|
|-0-00000-00000----------------|-0-00000-00000-----------3----|
  ___________________________    _______________________


Repeat Riff 2 - 0:57


 Chorus - 1:02 x4
|--------------------------------|-------------------------------|
|--------------------------------|-------------------------------|
|---------4/5\4------------------|---------4/5\4-----------------|
|---------4/5\4------------------|---------4/5\4-----------------|
|---------2/3\2--5-5-5-5-4-4-5-4-|---------2/3\2--5-5-5-5-4-4-7\-|
|-0-0-0-0--------3-3-3-3-2-2-3-2-|-0-0-0-0--------3-3-3-3-2-2-5\-|
  _______        _______________   _______        ___________


Repeat Riff 1 - 1:20 x2
Repeat Riff 3 - 1:29 x2
Repeat Riff 4 - 1:47 x2
Repeat Riff 5 - 1:56 x2
Repeat Riff 2 - 2:05
Repeat chorus - 2:10 x4

Under solo:
 Riff 2 x2
 Chorus x2

Repeat Riff 3 x2 2:46
Repeat Riff 4 - 3:04 x2
Repeat Riff 5 - 3:15 x2
Repeat Riff 2 - 3:23
Repeat chorus - 3:27 x4


 Last riff - 3:47
|---------------------------------|----------------------------|
|---------------------------------|----------------------------|
|---------------------------------|----------------------------|
|---------------------------------|----------------------------|
|---------7-------6-------5-------|---------7-------6-------2--|
|-0-0-0-0---0-8-0---0-7-0---0-6-0-|-0-0-0-0---0-8-0---0-7-0-0--|
  _______   _____   _____   _____   _______   _____   _____

END

  Visit MetalTabs.com for more metal tablature

bottom separator

Contact Us | Privacy Policy | Disclaimer | Legal Notice
Copyright © 2001-2014 MetalTabs.com. All Rights Reserved.