top separator

Home

Forum

What's New

Submit a Tab

FAQ

Links

Contact Us

Link to Us

MetalTabs.com logo

Bands

0-9

A

B

C

D

E

F

G

H

I

J

K

L

M

N

O

P

Q

R

S

T

U

V

W

X

Y

Z

Search

What

Where
 

Lifelover - "Stängt p.g.a Semester" Guitar Tab

Plain Text Version
More Lifelover Tabs

Hits: 2797
Rated: 5.00 out of 5 (2 votes)
Updated: 2008-12-22 04:11:57

 

By:

Carl

sendpm.gif

email.gif

Important note
This tab is available online because we obtained explicit permission from Lifelover or their label.


#----------------------------------PLEASE NOTE---------------------------------#
#This file is the author's own work and represents their interpretation of the #
#song. You may only use this file for private study, scholarship, or research. #
#Unless specified otherwise, this is NOT an official tab from the band members.#
#------------------------------------------------------------------------------#

  Visit MetalTabs.com for more metal tablature
  
Band:  (Lifelover)
Album: (Konkurs)
Song:  (Stängt P.g.a Semester)

Copyright (c)  (Avantgarde Music) (2008)
Version 1.0 - (081116)

Transcribed By: (Carl(thesadpartofthestory))
Email:          (Jag_calle__@hotmail.com)


.  - palm mute           /  - slide up to
  - slide down to       ~  - vibrato
h  - hammer on           b  - Bend
p  - pull off            Suffixes for bend
t  - tap                 f  - full bend    h - half bend
ph - pinched harmonic    q  - quarter bend t - tap bend
*  - see comment         ^  - Hold bend    r release bend
x  - Stuccatto           ~  - vibrato bend
,  - slight palm mute    () - ghost note, sustained note
"  - tremolo note        <> - Trill

Tuning E A D G B E



Riff played through the whole song

|--------------------------------------------------------------------
|--------------------------------------------------------------------
|-0-1-1-1-1-1-1-0---0-0-0-0-0-0------------------0-1-0-0-0-0-0-0-0-0-
|-----------------3-------------3-0-0-1-1-1-1-1-1--------------------
|--------------------------------------------------------------------
|--------------------------------------------------------------------


 The heavy disted melody

 1:12 - 2:16 and 3:20 - 4:23

|-------------------------------------------------------------------
|----8------------8----------------8------8/9--8--------------------
|------8-7--5---5---8--7---5---5-----8-7-5-----------------------
|-------------------------------------------------------------------
|-------------------------------------------------------------------
|-------------------------------------------------------------------

END

  Visit MetalTabs.com for more metal tablature

bottom separator

Contact Us | Privacy Policy | Disclaimer | Legal Notice
Copyright © 2001-2014 MetalTabs.com. All Rights Reserved.