top separator

Home

Forum

What's New

Submit a Tab

FAQ

Links

Contact Us

Link to Us

MetalTabs.com logo

Bands

0-9

A

B

C

D

E

F

G

H

I

J

K

L

M

N

O

P

Q

R

S

T

U

V

W

X

Y

Z

Search

What

Where
 

Reverend Bizarre - "Anywhere Out Of This World" Guitar Tab

Plain Text Version
More Reverend Bizarre Tabs

Hits: 2769
Rated: 4.50 out of 5 (4 votes)
Updated: 2008-11-17 04:12:29

 

By:

Wolfsherz

sendpm.gif

email.gif

Important note
We did our best to reach Reverend Bizarre and ask for their permission to publish this tab. Unfortunately they did not respond to our requests or we could not find a way to contact them. This tab is available online until Reverend Bizarre tells us to take it down.


#----------------------------------PLEASE NOTE---------------------------------#
#This file is the author's own work and represents their interpretation of the #
#song. You may only use this file for private study, scholarship, or research. #
#Unless specified otherwise, this is NOT an official tab from the band members.#
#------------------------------------------------------------------------------#

  Visit MetalTabs.com for more metal tablature
  
Band: Reverend Bizarre
Album: III - So Long Suckers
Song: Anywhere out of this World

Copyright (c) Spikefarm 2007

Transcribed By: Wolfsherz/Jens Cautereels
Email: cautereels.jens@gmail.com

Tuning  C# F# B E G# c#

Somethings may sound lower than in this tab, but this
is because of the bass taking over a lot of stuff.

Which is nice.

Bass intro: (separate basstab will be made sometime)
G ----------------
D -7----5----3----
A -5----3----1----
E ----------------

G -------------------
D -7----5----3----8--
A -5----3----1----6--
E -------------------

4:02
e -------------------------------------------
B -------------------------------------------
G -------------------------------------------
D -7-7---7-5------------7-7---7-5-------5----
A -5-5-5-----8-7-8--7---5-5-5------8-7--3----
E --------------------8-----------------3----

e ----------------------------------------------
B ----------------------------------------------
G ----------------------------------------------
D -7-7---7-8--7-5-7--5-----7-7--8-8--5-5--------
A -5-5-5---------------8---5-5--6-6--3-3-6-6----
E ---------------------------------------4-4----

5:03
e ----------------------------------------------------
B ----------------------------------------------------
G ----------------------------------------------------
D ----------------------3-3----------------------3-3--
A ----------------------------------------------------
E -3-3-3---3-3-3---3-3-3-3--3-3-3---3-3-3---3-3-3-3---

e ------------------------------------------------------
B ------------------------------------------------------
G --------------------------------------10--------------
D -7-7-7---7-7-7---7-7-7-10-10--7-8-7-8-----8--7/8/7----
A -5-5-5---5-5-5---5-5-5-8--8---5--------------------8--
E ------------------------------------------------------


5:34
e ------
B ------
G ------
D -7----
A -5----
E -5----

  “A cave to hide in, I open myself to you,
   Counting the scars I bear, I know I should be there”
e ------------------------------------------------
B ------------------------------------------------
G ------------------------------------------------
D -7----10----7----10----7----10----7----8--7--3--
A -5----8-----5----8-----5----8-----5----8--7--3--
E -5----8-----5----8-----5----8-----5----6--5--1--
  “But soon the day will come             *  *  *
                    That we’ll leave.”

7:40
e -------------------------------------------
B -------------------------------------------
G -------------------------------------------
D -7-7---7-5------------7-7---7-5-------5----
A -5-5-5-----8-7-8--7---5-5-5------8-7--3----
E --------------------8-----------------3----

e ----------------------------------------------
B ----------------------------------------------
G ----------------------------------------------
D -7-7---7-8--7-5-7--5-----7-7--8-8--5-5--------
A -5-5-5---------------8---5-5--6-6--3-3-6-6----
E ---------------------------------------4-4----

8:10
  “Deep in the woods, stands an abandoned house
   Its windows face the night”
e ------------------------------------------------
B ------------------------------------------------
G ------------------------------------------------
D -7----10----7----10----7----10----7----8--7--3--
A -5----8-----5----8-----5----8-----5----8--7--3--
E -5----8-----5----8-----5----8-----5----6--5--1--
  “The flowers of, Orient, cover the bed”*  *  *

9:18
e -------------------------------------------
B -------------------------------------------
G -------------------------------------------
D -7-7---7-5------------7-7---7-5-------5----
A -5-5-5-----8-7-8--7---5-5-5------8-7--3----
E --------------------8-----------------3----

e ----------------------------------------------
B ----------------------------------------------
G ----------------------------------------------
D -7-7---7-8--7-5-7--5-----7-7--8-8--5-5--------
A -5-5-5---------------8---5-5--6-6--3-3-6-6----
E ---------------------------------------4-4----
 
9:49
e ----------------------------------------------
B ----------------------------------------------
G ----------------------------------------------
D ----------------------8-7---8-7---7(bend)-----
A --------------------------8-----8-------------
E -3-333-333-333-333-333------------------------

e ----------------------------------------------
B ----------------------------------------------
G -----------------------7-5--------------------
D ---------------------------8-7-5--------------
A ---------------------------------8------------
E -3-333-333-333-333-333------------------------

e ------------------------------------
B ------------------------------------
G ------------------------------------
D -7--7-7-7-7-7-7-7-7-7-7-7-7-10--10--
A -5--5-5-5-5-5-5-5-5-5-5-5-5-8---10--
E -5--5-5-5-5-5-5-5-5-5-5-5-5-8---8--- x2
      * * * * * * * * * * * * *
e ----------------------------------------------
B ----------------------------------------------
G ----------------------------------------------
D ----------------------8-7---8-7---7(bend)-----
A --------------------------8-----8-------------
E -3-333-333-333-333-333------------------------

e ----------------------------------------------
B ----------------------------------------------
G -----------------------7-5--------------------
D ---------------------------8-7-5--------------
A ---------------------------------8------------
E -3-333-333-333-333-333------------------------

e ------------------------------------
B ------------------------------------
G ------------------------------------
D -7--7-7-7-7-7-7-7-7-7-7-7-7-10--10--
A -5--5-5-5-5-5-5-5-5-5-5-5-5-8---10--
E -5--5-5-5-5-5-5-5-5-5-5-5-5-8---8---
      * * * * * * * * * * * * *
e ------------------------------------
B ------------------------------------
G ------------------------------------
D -7--7-7-7-7-7-7-7-7-7-7-7-7--8-7-3--
A -5--5-5-5-5-5-5-5-5-5-5-5-5--8-7-3--
E -5--5-5-5-5-5-5-5-5-5-5-5-5--6-5-1---

e --------------------------------------------------------
B --------------------------------------------------------
G --------------------------------------------------------
D -7--7-7-7-7-7-7-7-7-7-7-7----5-7--7-7-7-7-7-7-7-7-7-7-7-
A -7--7-7-7-7-7-7-7-7-7-7-7-5-7-----7-7-7-7-7-7-7-7-7-7-7-
E -5--5-5-5-5-5-5-5-5-5-5-5---------5-5-5-5-5-5-5-5-5-5-5-
 
e ------------------------------------------------------------
B ------------------------------------------------------------
G ------------------------------------------------------------
D -7-5-3-7--7-7-7-7-7-7-7-7-7-7-7----5-7--7-7-7-7-5-7-8-8-8-8-
A -5-3-1-7--7-7-7-7-7-7-7-7-7-7-7-5-7-------------------------
E -------5--5-5-5-5-5-5-5-5-5-5-5-----------------------------

e -----------------------------------------------------------------
B -----------------------------------------------------------------
G ------------------------------------------------7-8-7-5----------
D -7-5-3-7--7-7-7-7-7-7-7-7-7-7-7----5-7--7-7-7-7---------7-5------
A -5-3-1-7--7-7-7-7-7-7-7-7-7-7-7-5-7------------------------7-5---
E -------5--5-5-5-5-5-5-5-5-5-5-5--------------------------------8-

e ------------------------------------------------------------
B ------------------------------------------------------------
G ------------------------------------------------------------
D -7--7-7-7-7-7-7-7-7-7-7-7----5-7--7-7-7-7-7-7--2-3--2--5----
A -7--7-7-7-7-7-7-7-7-7-7-7-5-7------------------2-3--2--5----
E -5--5-5-5-5-5-5-5-5-5-5-5----------------------0-1--0--3----

10:50
e -------------------------------------------
B -------------------------------------------
G -------------------------------------------
D -7-7---7-5------------7-7---7-5-------5----
A -5-5-5-----8-7-8--7---5-5-5------8-7--3----
E --------------------8-----------------3----

e ----------------------------------------------
B ----------------------------------------------
G ----------------------------------------------
D -7-7---7-8--7-5-7--5-----7-7--8-8--5-5--------
A -5-5-5---------------8---5-5--6-6--3-3-6-6----
E ---------------------------------------4-4----
  “To be, anywhere out of this world, in peace…”

11:51
e ----------------------------------------------------
B ----------------------------------------------------
G ----------------------------------------------------
D ----------------------3-3----------------------3-3--
A ----------------------------------------------------
E -3-3-3---3-3-3---3-3-3-3--3-3-3---3-3-3---3-3-3-3---

e ------------------------------------------------------
B ------------------------------------------------------
G --------------------------------------10--------------
D -7-7-7---7-7-7---7-7-7-10-10--7-8-7-8-----8--7/8/7----
A -5-5-5---5-5-5---5-5-5-8--8---5--------------------8--
E ------------------------------------------------------

5:34
e ------
B ------
G ------
D -7----
A -5----
E -5----
 

Bass part:
G ----------------------------------------------
D -4----4-----4--4--2---2-4-2---0--0------------
A -5--5---55--------4--4-----4--2----2----------
E ----------------------------------------------

G ----------------------------------------------------
D -4----4---4--4--4-7-5-4--2--2-4-2---0----0/2/0------
A -5--5---5----------------4-4-----4--2--2-------2----
E -------------------------------------------------2--
  “When I open my eyes, clouds are dancing in the sky
   High in the air, strange birds fly
   Warm wind brings luxurious scent of unknown flowers
   On this perfect grass, we make love for a thousand hours”
G -----------------------------------------------------------
D -----------------------------------------------------------
A -4---4---4---4----5----5--------5---5--5-4---4--0----0--2--
E -5--5--5----5--5--7--7---7-5-2----7---7--5-5--5-2--2----3--

  “I kiss your wounds, and in our eyes they disappear.”
G ----------------------------------------------
D -4----4-----4--4--2---2-4-2---0--0------------
A -5--5---55--------4--4-----4--2----2----------
E ----------------------------------------------

G ----------------------------------------------------
D -4----4---4--4--4-7-5-4--2--2-4-2---0----0/2/0------
A -5--5---5----------------4-4-----4--2--2-------2----
E -------------------------------------------------2--
  “The valley below has a veil of gentle rain
   Never again will we have to feel the pain
   The purple mist conceals a giant mountain
   All its streams run to the shining fountain”
G ----------------------------------------------
D -4----4-----4--4--2---2-4-2---0--0------------
A -5--5---55--------4--4-----4--2----2----------
E ----------------------------------------------

G ----------------------------------------------------
D -4----4---4--4--4-7-5-4--2--2-4-2---0----0/2/0------
A -5--5---5----------------4-4-----4--2--2-------2----
E -------------------------------------------------2--
  “Once, in a dream, I have been here,
   but now, when with you, I have no fear”

15:17
e ----------------------------
B ----------------------------
G ----------------------------
D -4-4-4-4-4-4-4-4-4-4-4-4----
A -2-2-2-2-2-2-2-2-2-2-2-2----
E ----------------------------

15:19
e ----------------------------------------------
B ----------------------------------------------
G ----------------------------------------------
D -7--------7/6----6/4----4---------------------
A -5--------5/4----4/2----2---------------------
E ----------------------------------------------
e ------------------------------------------------------
B ------------------------------------------------------
G ------------------------------------------------------
D -7--------7--9-------9--7----7--4----4--9-9-9-9-9-9-9-
A -7--------7--9-------9--7----7--4----4--9-9-9-9-9-9-9-
E -5--------5--7-------7--5----5--2----2--7-7-7-7-7-7-7-
  “And when night falls upon the horizon, there is a blaze
   Our hearts rejoice
   The old world has reached its dying days
   I kiss your wounds, and in our eyes they disappear
   You hold me tight, and our minds,
   once distraught, now crystal clear”

23:29
e -----------------------------------------------------------------
B -----------------------------------------------------------------
G -----------------------------------------------------------------
D -4-4-4-4-4-4-4-4-4-4-4-4-7-7-7-7-2-2-2-2-2-2-2-2-0-0-0-0-0-0-0-0-
A -5-5-5-5-5-5-5-5-5-5-5-5-5-5-5-5-4-4-4-4-4-4-4-4-2-2-2-2-2-2-2-2-
E -----------------------------------------------------------------

  Visit MetalTabs.com for more metal tablature

bottom separator

Contact Us | Privacy Policy | Disclaimer | Legal Notice
Copyright © 2001-2014 MetalTabs.com. All Rights Reserved.