top separator

Home

Forum

What's New

Submit a Tab

FAQ

Links

Contact Us

Link to Us

MuSpy.com

MetalTabs.com logo

Bands

0-9

A

B

C

D

E

F

G

H

I

J

K

L

M

N

O

P

Q

R

S

T

U

V

W

X

Y

Z

Search

What

Where
 

Reverend Bizarre - "The Devil Rides Out" Guitar Tab

Plain Text Version
More Reverend Bizarre Tabs

Hits: 1658
Rated: 4.50 out of 5 (6 votes)
Updated: 2008-11-17 04:11:48

 

By:

Wolfsherz

sendpm.gif

email.gif

Important note
We did our best to reach Reverend Bizarre and ask for their permission to publish this tab. Unfortunately they did not respond to our requests or we could not find a way to contact them. This tab is available online until Reverend Bizarre tells us to take it down.


#----------------------------------PLEASE NOTE---------------------------------#
#This file is the author's own work and represents their interpretation of the #
#song. You may only use this file for private study, scholarship, or research. #
#Unless specified otherwise, this is NOT an official tab from the band members.#
#------------------------------------------------------------------------------#

  Visit MetalTabs.com for more metal tablature
  
Band: Reverend Bizarre
Album: II: Crush the Insects
Song: The Devil Rides Out

Copyright (c) Spinefarm 2005

Transcribed By: Wolfsherz/Jens Cautereels
Email: cautereels.jens@gmail.com

Tuning C# F# B E G# c#

e -----------------------------------------
B -----------------------------------------
G -----------------------------------------
D ----------------------------7-6-5--------
A -5/7-7-77-5/7-7-77-5/7-7-77-5-4-3--------
E -3/5-5-55-3/5-5-55-3/5-5-55-------------- x12
          **     **       **

e ------------------------------------------------------
B ------------------------------------------------------
G --------------------------7-6-5-----------------------
D -5/7-7-777-777-777-777-77-5-4-3-----------------------
A -3/5-5-555-555-555-555-55-----------------------------
E ------------------------------------------------------ x2

e -----------------------------------------
B -----------------------------------------
G -----------------------------------------
D ----------------------------7-6-5--------
A -5/7-7-77-5/7-7-77-5/7-7-77-5-4-3--------
E -3/5-5-55-3/5-5-55-3/5-5-55-------------- x2
          **     **       **

e ------------------------------------------------------
B ------------------------------------------------------
G ------------------------------------------------------
D -7----9----10----7----9--7--9-------------------------
A -7----9----10----5----7--5--7--10-99-7-10-9-7-9-10----
E -5----7----8-----5----7--5--7------------------------- x2
  “Oooooh yeah!”
e -----------------------------------------
B -----------------------------------------
G -----------------------------------------
D ----------------------------7-6-5--------
A -5/7-7-77-5/7-7-77-5/7-7-77-5-4-3--------
E -3/5-5-55-3/5-5-55-3/5-5-55-------------- x12
          **     **       **
e ------------------------------------------------------
B ------------------------------------------------------
G --------------------------7-6-5-----------------------
D -5/7-7-777-777-777-777-77-5-4-3-----------------------
A -3/5-5-555-555-555-555-55-----------------------------
E ------------------------------------------------------ x2

e -----------------------------------------
B -----------------------------------------
G -----------------------------------------
D ----------------------------7-6-5--------
A -5/7-7-77-5/7-7-77-5/7-7-77-5-4-3--------
E -3/5-5-55-3/5-5-55-3/5-5-55-------------- x2
          **     **       **
  “Look out!”
e ------------------------------------------------------
B ------------------------------------------------------
G ------------------------------------------------------
D -7----9----10----7----9--7--9-------------------------
A -7----9----10----5----7--5--7--10-99-7-10-9-7-9-10----
E -5----7----8-----5----7--5--7------------------------- x2


e ------------------------------------------------------
B ------------------------------------------------------
G ------------------------------------------------------
D -2-4-2-5----5-5-5-5-5-4-5-----------------------------
A -0-2-2-3----3-3-3-3-3-2-5-----------------------------
E -----0------------------3----------------------------- x2

e ------------------------------------------------------
B ------------------------------------------------------
G ---9-12-10--------------------------------------------
D -9----------10--10-10-10-10/12-12---------------------
A -7----------8---8--8--8--8-/10-10---------------------
E ------------------------------------------------------ x2
Repeat last two bars 2 times

e -----------------------------------------
B -----------------------------------------
G -----------------------------------------
D ----------------------------7-6-5--------
A -5/7-7-77-5/7-7-77-5/7-7-77-5-4-3--------
E -3/5-5-55-3/5-5-55-3/5-5-55-------------- x2

Solo:
e ---------------------------------12--12-10--10---------------
B -10----131313--131313-12-10-8-10----------13---12/13-8-10----
G -------------------------------------------------------------
D -------------------------------------------------------------
A -------------------------------------------------------------
E -------------------------------------------------------------

e -----------12------------------------17---13----13-13/12/13-10-8-
B -13---10-----13---13---12/13/12-10-8-----------------------------
G -----------------------------------------------------------------
D -----------------------------------------------------------------
A -----------------------------------------------------------------
E -----------------------------------------------------------------


e -17------20--------------------------------
B ------20-----------------------------------
G --------------19-17-16-17-14---------------
D -------------------------------------------
A -------------------------------------------
E -------------------------------------------
Repeat last two bars 2 times.
Rhythm:
e -----------------------------------------
B -----------------------------------------
G -----------------------------------------
D ----------------------------7-6-5--------
A -5/7-7-77-5/7-7-77-5/7-7-77-5-4-3--------
E -3/5-5-55-3/5-5-55-3/5-5-55-------------- x2

e ------------------------------------------------------
B ------------------------------------------------------
G ------------------------------------------------------
D -2-4-2-5----5-5-5-5-5-4-5-----------------------------
A -0-2-2-3----3-3-3-3-3-2-5-----------------------------
E -----0------------------3----------------------------- x2

e ------------------------------------------------------
B ------------------------------------------------------
G ---9-12-10--------------------------------------------
D -9----------10--10-10-10-10/12-12---------------------
A -7----------8---8--8--8--8-/10-10---------------------
E ------------------------------------------------------ x2
-Solo end-

e -----------------------------------------
B -----------------------------------------
G -----------------------------------------
D ----------------------------7-6-5--------
A -5/7-7-77-5/7-7-77-5/7-7-77-5-4-3--------
E -3/5-5-55-3/5-5-55-3/5-5-55-------------- x16
          **     **       **
e ------------
B ------------
G ------------
D -7--6--5----
A -7--6--5----
E -5--4--3---- x4
 

Neat little jam-session:
e --------------------------    e --------------------------
B --------------------------    B --------------------------
G -------------5-5-5--5-7-5-    G -----------9-9-9--9-10-9--
D -1/5-7-5-7-5--------------    D -10-9-10-9----------------
A --------------------------    A --------------------------
E -------------------------- x4 E -------------------------- x4

e -----------------------------------
B -------------13-13-13--13-15-13----
G -14-12-14-12-----------------------
D -----------------------------------
A -----------------------------------
E ----------------------------------- x4

e ------------12-12-12--12-13-12-----
B -13-12-13-12-----------------------
G -----------------------------------
D -----------------------------------
A -----------------------------------
E ----------------------------------- x4

  Visit MetalTabs.com for more metal tablature

bottom separator

Contact Us | Privacy Policy | Disclaimer | Legal Notice
Copyright © 2001-2014 MetalTabs.com. All Rights Reserved.