top separator

Home

Forum

What's New

Submit a Tab

FAQ

Links

Contact Us

Link to Us

MetalTabs.com logo

Bands

0-9

A

B

C

D

E

F

G

H

I

J

K

L

M

N

O

P

Q

R

S

T

U

V

W

X

Y

Z

Search

What

Where
 

Reverend Bizarre - "Eternal Forest" Guitar Tab

Plain Text Version
More Reverend Bizarre Tabs

Hits: 1579
Rated: 4.75 out of 5 (8 votes)
Updated: 2008-11-17 04:11:33

 

By:

Wolfsherz

sendpm.gif

email.gif

Important note
We did our best to reach Reverend Bizarre and ask for their permission to publish this tab. Unfortunately they did not respond to our requests or we could not find a way to contact them. This tab is available online until Reverend Bizarre tells us to take it down.


#----------------------------------PLEASE NOTE---------------------------------#
#This file is the author's own work and represents their interpretation of the #
#song. You may only use this file for private study, scholarship, or research. #
#Unless specified otherwise, this is NOT an official tab from the band members.#
#------------------------------------------------------------------------------#

  Visit MetalTabs.com for more metal tablature
  
Band: Reverend Bizarre
Album: II: Crush the Insects
Song: Cromwell

Copyright (c) Spinefarm 2005

Transcribed By: Wolfsherz/Jens Cautereels
Email: cautereels.jens@gmail.com

Tuning C# F# B E G# c#

e ------------------------------------------------------
B ------------------------------------------------------
G ------------------------------------------------------
D -6-8-8-8-8--8-6-5-3-4---------------------------------
A -6-8-8-8-8--8-4-3-1-4---------------------------------
E -4-6-6-6-6--6-------2---------------------------------


e ---------
B -9-------
G ---10----
D ---------
A ---------
E ---------

3:34
e ------------------------------------------------------
B ------------------------------------------------------
G ------------------------------------------------------
D -8----6----6--8--4----6----4----4--6--4---------------
A -8----6----6--8--6----6----4----4--6--4---------------
E -6----4----4--6--4----4----2----2--4--2--------------- x2

e ------------------------------------------------------
B ------------------------------------------------------
G ------------------------------------------------------
D -6-8-8-8-8--8-6-5-3-4---------------------------------
A -6-8-8-8-8--8-4-3-1-4---------------------------------
E -4-6-6-6-6--6-------2---------------------------------

e ---------
B -9-------
G ---10----
D ---------
A ---------
E ---------
 
6:26
e ------------------------------------------------------
B ------------------------------------------------------
G ------------------------------------------------------
D -8----6----6--8--4----6----4----4--6--4---------------
A -8----6----6--8--6----6----4----4--6--4---------------
E -6----4----4--6--4----4----2----2--4--2--------------- x2

e ------------------------------------------------------
B ------------------------------------------------------
G ------------------------------------------------------
D -6-8-8-8-8--8-6-5-3-4---------------------------------
A -6-8-8-8-8--8-4-3-1-4---------------------------------
E -4-6-6-6-6--6-------2---------------------------------

7:08 Solo:
e -13----13/14--13-14-13----13--13--13--12/13----13/14-11----
B -----------------------------------------------------------
G -----------------------------------------------------------
D -----------------------------------------------------------
A -----------------------------------------------------------
E -----------------------------------------------------------

e -13-11-11-13-13--(11)--13-11-11-13-13/9----8-9-11-9----8/9-
B -----------------------------------------------------------
G -----------------------------------------------------------
D -----------------------------------------------------------
A -----------------------------------------------------------
E -----------------------------------------------------------
Guitar 1:
e -8-9-11--9--8--8/9/8----------------------------9/11-11--9----
B --------------------------------------------------------------
Guitar 2:
e -8-9-11--9--13--13/14/13----13/11-11--11-13-9-----------------
B --------------------------------------------------------------

7:51
e ------------------------------------------------------
B ------------------------------------------------------
G ------------------------------------------------------
D -8----6----6--8--4----6----4----4--6--4---------------
A -8----6----6--8--6----6----4----4--6--4---------------
E -6----4----4--6--4----4----2----2--4--2--------------- x2
 
e -----------------------------
B -----------------------------
G -----------------------------
D -6-8-8-8-8--8-6-5-3-4--------
A -6-8-8-8-8--8-4-3-1-4--------
E -4-6-6-6-6--6-------2--------

e -----------------------------
B -----------------------------
G -----------------------------
D -6-8-8-8-8--8-11-10-8--------
A ----------------------9------
E -----------------------------

e -----------------------------
B -----------------------------
G -5-6-6-6--10--8--6-----------
D --------------------8-10-10--
A -----------------------------
E -----------------------------

e --------------------------------------
B --------------------------------------
G --------------------------------------
D -6-8-8-8-8-8-8-8-8-8-8-4----4-4-4-----
A -6-8-8-8-8-8-8-8-8-8-8-4----4-4-4-----
E -4-6-6-6-6-6-6-6-6-6-6-2----2-2-2-----

  Visit MetalTabs.com for more metal tablature

bottom separator

Contact Us | Privacy Policy | Disclaimer | Legal Notice
Copyright © 2001-2014 MetalTabs.com. All Rights Reserved.