top separator

Home

Forum

What's New

Submit a Tab

FAQ

Links

Contact Us

Link to Us

MetalTabs.com logo

Bands

0-9

A

B

C

D

E

F

G

H

I

J

K

L

M

N

O

P

Q

R

S

T

U

V

W

X

Y

Z

Search

What

Where
 

Reverend Bizarre - "Strange Horizon" Guitar Tab

Plain Text Version
More Reverend Bizarre Tabs

Hits: 1613
Rated: 4.50 out of 5 (4 votes)
Updated: 2008-11-17 04:11:18

 

By:

Wolfsherz

sendpm.gif

email.gif

Important note
We did our best to reach Reverend Bizarre and ask for their permission to publish this tab. Unfortunately they did not respond to our requests or we could not find a way to contact them. This tab is available online until Reverend Bizarre tells us to take it down.


#----------------------------------PLEASE NOTE---------------------------------#
#This file is the author's own work and represents their interpretation of the #
#song. You may only use this file for private study, scholarship, or research. #
#Unless specified otherwise, this is NOT an official tab from the band members.#
#------------------------------------------------------------------------------#

  Visit MetalTabs.com for more metal tablature
  
Band: Reverend Bizarre
Album: Harbinger of Metal
Song: Strange Horizon

Copyright (c) Spinefarm 2003

Transcribed By: Wolfsherz/Jens Cautereels
Email: cautereels.jens@gmail.com

Tuning  C# F# B E G# c#

e -----------------
B -----------------
G -----------------
D -9-9-9-9-9-9-9-9-
A -----------------
E -----------------

e ----------------------------------
B ----------------------------------
G ----------------------------------
D -9--9-7-9-9-9-9-9-9-9-9-9-9-9-9---
A -9--9-7---------------------------
E -7--7-5--------------------------- x3

e ---------------------------------
B ---------------------------------
G ---------------------------------
D -7----7--9--5----5-5-5-5-5-5-5-5-
A -7----7--9--5----5-5-5-5-5-5-5-5-
E -5----5--7--3----3-3-3-3-3-3-3-3-

Repeat last two bars 2 times

e ----------------------------------
B ----------------------------------
G ----------------------------------
D -9--9---------------4----5--------
A -9--9--------5------4----5--------
E -7--7----5-7---7-5--2----3-------- x4
           |this part| is less audible on the EP,
e ---------------------------------- but still there.
B ----------------------------------
G ----------------------------------
D -9--9-7-9-9-9-9-9-9-9-9-9-9-9-9---
A -9--9-7---------------------------
E -7--7-5--------------------------- x3

e ---------------------------------
B ---------------------------------
G ---------------------------------
D -7----7--9--5----5-5-5-5-5-5-5-5-
A -7----7--9--5----5-5-5-5-5-5-5-5-
E -5----5--7--3----3-3-3-3-3-3-3-3-
Repeat last two bars 2 times.

e ----------------------------------
B ----------------------------------
G ----------------------------------
D -9--9---------------4----5--------
A -9--9--------5------4----5--------
E -7--7----5-7---7-5--2----3-------- x8

e ----------------------------------
B ----------------------------------
G ----------------------------------
D -9-9-----7-9-7--------------------
A -9-9-7-9-------9-7-79-------------
E -7-7------------------------------ x3

e ----------------------------------
B ----------------------------------
G ----------------------------------
D -9-9-----9-9-9-9-9----------------
A -9-9-7-9--------------------------
E -7-9------------------------------

e ----------------------------------
B ----------------------------------
G --------7-9--6--7--7-7-6----------
D -9-9--9-5-7--4--5--5-5-4----------
A -9-9--7---------------------------
E -7-7------------------------------ x3
        “Baby don’t be ‘fraid…”

e -----------------
B -----------------
G -----------------
D -7----7--9--5----
A -7----7--9--5----
E -5----5--7--3----

e ----------------------------------
B ----------------------------------
G --------7-9--6--7--7-7-6----------
D -9-9--9-5-7--4--5--5-5-4----------
A -9-9--7---------------------------
E -7-7------------------------------ x3

e -----------------
B -----------------
G -----------------
D -7----7--9--5----
A -7----7--9--5----
E -5----5--7--3----

e ----------------------------------
B ----------------------------------
G ----------------------------------
D -9-9-----7-9-7--------------------
A -9-9-7-9-------9-7-9--------------
E -7-7------------------------------ x3

e ----------------------------------
B ----------------------------------
G ----------------------------------
D -9-9-----7-9-9-9-9-9--------------
A -9-9-7-9--------------------------
E -7-9------------------------------

e ----------------------------------
e ----------------------------------
B ----------------------------------
G --------7-9--6--7--7-7-6----------
D -9-9--9-5-7--4--5--5-5-4----------
A -9-9--7---------------------------
E -7-7------------------------------ x3

e -----------------
B ----------------- “Soon, the dreams will come
G -----------------  Beyond the Strange Horizon"
D -7----7--9--5----
A -7----7--9--5----
E -5----5--7--3----
Repeat last two bars 2 times

e ----------------------------------
B ----------------------------------
G ----------------------------------
D -9--9---------------4----5--------
A -9--9--------5------4----5--------
E -7--7----5-7---7-5--2----3-------- x2

Bass interlude
e ------------------------------------------------------
B ------------------------------------------------------
G ------------------------------------------------------
D -7-9-9-9-9-9-9-9-7-9-9-9-9-9-9-9-4----4-4----4-5-5----
A -7-9-9-9-9-9-9-9-7-9-9-9-9-9-9-9-4----4-4----4-5-5----
E -5-7-7-7-7-7-7-7-5-7-7-7-7-7-7-7-2----2-2----2-3-3----

e ------------------------------------------------------
B ------------------------------------------------------
G -6-7-7-7-7-7-7-7-6-7-7-7-7-7-7-7-2----2-2----2-4-4----
D ------------------------------------------------------
A ------------------------------------------------------
E ------------------------------------------------------

e ----------------------------------
B ----------------------------------
G ----------------------------------
D -9-9-----7-9-7--------------------
A -9-9-7-9-------9-7-9--------------
E -7-7------------------------------ x3

e ----------------------------------
B ----------------------------------
G ----------------------------------
D -9-9-----7-9-9-9-9-9--------------
A -9-9-7-9--------------------------
E -7-9------------------------------

e ----------------------------------
e ----------------------------------
B ----------------------------------
G --------7-9--6--7--7-7-6----------
D -9-9--9-5-7--4--5--5-5-4----------
A -9-9--7---------------------------
E -7-7------------------------------ x3
  “Walk the path of Death, try to save your breath
e ----------------- Soon we’ll face our Lord
B ----------------- We leave this world behind.
G -----------------
D -7----7--9--5---- Free among the dead, from sins we once plead
A -7----7--9--5---- Eternal is our love, we leave this world behind”
E -5----5--7--3----
Repeat last two bars two times.

e ----------------------------------
B ----------------------------------
G ----------------------------------
D -9--9---------------4----5--------
A -9--9--------5------4----5--------
E -7--7----5-7---7-5--2----3-------- x3

e ----------------------------------
B ----------------------------------
G ----------------------------------
D -9--9----9--7--5--4---5-----------
A -9--9----9--7--5--4---5-----------
E -7--7----7--5--3--2---3-----------
            *  *  * palm muted
Guitar 1:             x2
e ------------------------|-----------------------
B ------------------------|-----------------------
G ----9-7-6-7-6-----------|--9-7-6-7-11-----------
D -9------------9----9-7--|-------------9----9-7--
A -9----------------------|-----------------------
E -7----------------------|-----------------------
Guitar 2:
e ------------------------
B ------------------------
G ------------------------
D -9------7----5-----5-4--
A -9------7----5-----5-4--
E -7------5----3-----3-2-- x4

e ----------------------------------
B ----------------------------------
G ----------------------------------
D -9--9---------------4----5--------
A -9--9--------5------4----5--------
E -7--7----5-7---7-5--2----3-------- x2
  “All right!”


Guitar 1:             x2   “Blessed be those within grief…”
e ------------------------|-----------------------
B ------------------------|-----------------------
G ----9-7-6-7-6-----------|--9-7-6-7-11-----------
D -9------------9----9-7--|-------------9----9-7--
A -9----------------------|-----------------------
E -7----------------------|-----------------------
Guitar 2:                  “Leave your pain to the Earth
e ------------------------  Under the tombstone is birth.”
B ------------------------
G ------------------------
D -9------7----5-----5-4--
A -9------7----5-----5-4--
E -7------5----3-----3-2-- x4

e ----------------------------------
B ----------------------------------
G ----------------------------------
D -9--9-7-9-9-9-9-9-9-9-9-9-9-9-9---
A -9--9-7---------------------------
E -7--7-5--------------------------- x3

e ---------------------------------
B ---------------------------------
G ---------------------------------
D -7----7--9--5----5-5-5-5-5-5-5-5-
A -7----7--9--5----5-5-5-5-5-5-5-5-
E -5----5--7--3----3-3-3-3-3-3-3-3-
  “You just gotta believe!”

‘til the end:
e ---------------------------------------------
B ---------------------------------------------
G ---------------------------------------------
D -9--------------------9---------------------- “Baby no time!”
A -9----9----10----7----9----9----7------------
E -7--------------------7--------------9-10-9--

  Visit MetalTabs.com for more metal tablature

bottom separator

Contact Us | Privacy Policy | Disclaimer | Legal Notice
Copyright © 2001-2014 MetalTabs.com. All Rights Reserved.