top separator

Home

Forum

What's New

Submit a Tab

FAQ

Links

Contact Us

Link to Us

MuSpy.com

MetalTabs.com logo

Bands

0-9

A

B

C

D

E

F

G

H

I

J

K

L

M

N

O

P

Q

R

S

T

U

V

W

X

Y

Z

Search

What

Where
 

Reverend Bizarre - "Strange Horizon" Guitar Tab

Plain Text Version
More Reverend Bizarre Tabs

Hits: 1673
Rated: 4.00 out of 5 (4 votes)
Updated: 2008-11-17 04:10:30

 

By:

Wolfsherz

sendpm.gif

email.gif

Important note
We did our best to reach Reverend Bizarre and ask for their permission to publish this tab. Unfortunately they did not respond to our requests or we could not find a way to contact them. This tab is available online until Reverend Bizarre tells us to take it down.


#----------------------------------PLEASE NOTE---------------------------------#
#This file is the author's own work and represents their interpretation of the #
#song. You may only use this file for private study, scholarship, or research. #
#Unless specified otherwise, this is NOT an official tab from the band members.#
#------------------------------------------------------------------------------#

  Visit MetalTabs.com for more metal tablature
  
Band: Reverend Bizarre
Album: Slice of Doom
Song: Strange Horizon

Copyright (c) Spinefarm 2004

Transcribed By: Wolfsherz/Jens Cautereels
Email: cautereels.jens@gmail.com

Tuning  C# F# B E G# c#

Maybe this is in C (compared to the Harbinger EP), but I doubt it
There’s no open notes anyway so it wouldn’t really matter.
Intro:
e -----------------
B -----------------
G -----------------
D -8-8-8-8-8-8-8-8-
A -----------------
E -----------------

e ----------------------------------
B ----------------------------------
G ----------------------------------
D -8--8-6-8-8-8-8-8-8-8-8-8-8-8-8-8-
A -8--8-6---------------------------
E -6--6-4--------------------------- x3

e -----------------
B -----------------
G -----------------
D -6----6--8--4----
A -6----6--8--4----
E -4----4--6--2----

e ----------------------------------
B ----------------------------------
G ----------------------------------
D -8--8-6-8-8-8-8-8-8-8-8-8-8-8-8-8-
A -8--8-6---------------------------
E -6--6-4--------------------------- x3

e -----------------
B -----------------
G -----------------
D -6----6--8--4----
A -6----6--8--4----
E -4----4--6--2----
 

e ----------------------------------
B ----------------------------------
G ----------------------------------
D -8--8---------------3----4--------
A -8--8--------4------3----4--------
E -6--6----4-6---6-4--1----2-------- x4

e ----------------------------------
B ----------------------------------
G ----------------------------------
D -8--8-6-8-8-8-8-8-8-8-8-8-8-8-8-8-
A -8--8-6---------------------------
E -6--6-4--------------------------- x3

e -----------------
B -----------------
G -----------------
D -6----6--8--4----
A -6----6--8--4----
E -4----4--6--2----

Repeat last two bars 2 times.

e ----------------------------------
B ----------------------------------
G ----------------------------------
D -8--8---------------3----4--------
A -8--8--------4------3----4--------
E -6--6----4-6---6-4--1----2-------- x4

e ----------------------------------
B ----------------------------------
G ----------------------------------
D -8-8-----6-8-6--------------------
A -8-8-6-8-------8-7-6--------------
E -6-6------------------------------ x3

e ----------------------------------
B ----------------------------------
G ----------------------------------
D -8-8-----6-8-8-8-8----------------
A -8-8-6-8--------------------------
E -6-6------------------------------

e ----------------------------------
B ----------------------------------
G ---------------8--5-6--6-5-6-5----
D -8-8-8-8-8-6-8-6--3-4--4-3/4/3----
A -----------4-6--------------------
E ---------------------------------- x3
        “Baby don’t be ‘fraid…”

e -----------------
B -----------------
G -----------------
D -6----6--8--4----
A -6----6--8--4----
E -4----4--6--2----

e ----------------------------------
B ----------------------------------
G ---------------8--5-6--6-5-6-5----
D -8-8-8-8-8-6-8-6--3-4--4-3/4/3----
A -----------4-6--------------------
E ---------------------------------- x3

e -----------------
B -----------------
G -----------------
D -6----6--8--4----
A -6----6--8--4----
E -4----4--6--2----


e ----------------------------------
B ----------------------------------
G ----------------------------------
D -8-8-----6-8-6--------------------
A -8-8-6-8-------8-7-6--------------
E -6-6------------------------------ x3

e ----------------------------------
B ----------------------------------
G ----------------------------------
D -8-8-----6-8-8-8-8----------------
A -8-8-6-8--------------------------
E -6-6------------------------------

e ----------------------------------
B ----------------------------------
G ---------------8--5-6--6-5-6-5----
D -8-8-8-8-8-6-8-6--3-4--4-3/4/3----
A -----------4-6--------------------
E ---------------------------------- x3
  “Soon, the dreams will come…
e ----------------- Beyond the strange Horizon”
B -----------------
G -----------------
D -6----6--8--4----
A -6----6--8--4----
E -4----4--6--2----
Repeat last two bars 2 times
 

e ----------------------------------
B ----------------------------------
G ----------------------------------
D -8--8---------------3----4--------
A -8--8--------4------3----4--------
E -6--6----4-6---6-4--1----2-------- x4

e ----------------------------------
B ----------------------------------
G ---------------8--5-6--6-5-6-5----
D -8-8-8-8-8-6-8-6--3-4--4-3/4/3----
A -----------4-6--------------------
E ---------------------------------- x3

e -----------------
B -----------------
G -----------------
D -6----6--8--4----
A -6----6--8--4----
E -4----4--6--2----
Repeat last two bars 2 times

e ----------------------------------
B ----------------------------------
G ----------------------------------
D -8--8---------------3----4--------
A -8--8--------4------3----4--------
E -6--6----4-6---6-4--1----2-------- x3

e ----------------------------------
B ----------------------------------
G ----------------------------------
D -8--8----8-6-4--3----4------------
A -8--8----8-6-4--3----4------------
E -6--6----6-4-2--1----2------------
            * * * palm muted
Guitar 1:             x2
e ---------------------|--------------------
B ---------------------|--------------------
G ----8-6-5-6-5--------|--8-6-5-6-10--------
D -8------------8--8-6-|-------------8--8-6-
A -8-------------------|--------------------
E -6-------------------|--------------------
Guitar 2:
e --------------------
B --------------------
G --------------------
D -8----6----4----4-3-
A -8----6----4----4-3-
E -6----4----2----2-1 -x4


e ----------------------------------
B ----------------------------------
G ----------------------------------
D -8--8---------------3----4--------
A -8--8--------4------3----4--------
E -6--6----4-6---6-4--1----2-------- x2

Guitar 1:             x2  “Blessed be those within grief…”
e ---------------------|--------------------
B ---------------------|--------------------
G ----8-6-5-6-5--------|--8-6-5-6-10--------
D -8------------8--8-6-|-------------8--8-6-
A -8-------------------|--------------------
E -6-------------------|--------------------
Guitar 2:
e --------------------
B --------------------
G --------------------
D -8----6----4----4-3-
A -8----6----4----4-3-
E -6----4----2----2-1 -x4

e ----------------------------------
B ----------------------------------
G ----------------------------------
D -8--8-6-8-8-8-8-8-8-8-8-8-8-8-8-8-
A -8--8-6---------------------------
E -6--6-4--------------------------- x3
  “You just gotta believe!”
e -----------------
B -----------------
G -----------------
D -6----6--8--4----
A -6----6--8--4----
E -4----4--6--2----
Repeat last two bars 2 times

‘til the end:
e -------------------------------------------
B -------------------------------------------
G -------------------------------------------
D -8-------------------8--------------------- “Baby no time!”
A -8----8----9----6----8----8----6-----------
E -6-------------------6--------------8-9-8--

  Visit MetalTabs.com for more metal tablature

bottom separator

Contact Us | Privacy Policy | Disclaimer | Legal Notice
Copyright © 2001-2014 MetalTabs.com. All Rights Reserved.