top separator

Home

Forum

What's New

Submit a Tab

FAQ

Links

Contact Us

Link to Us

MetalTabs.com logo

Bands

0-9

A

B

C

D

E

F

G

H

I

J

K

L

M

N

O

P

Q

R

S

T

U

V

W

X

Y

Z

Search

What

Where
 

Reverend Bizarre - "They Used Dark Forces/Teutonic Witch" Guitar Tab

Plain Text Version
More Reverend Bizarre Tabs

Hits: 2857
Rated: 4.75 out of 5 (4 votes)
Updated: 2008-11-17 04:09:44

 

By:

Wolfsherz

sendpm.gif

email.gif

Important note
We did our best to reach Reverend Bizarre and ask for their permission to publish this tab. Unfortunately they did not respond to our requests or we could not find a way to contact them. This tab is available online until Reverend Bizarre tells us to take it down.


#----------------------------------PLEASE NOTE---------------------------------#
#This file is the author's own work and represents their interpretation of the #
#song. You may only use this file for private study, scholarship, or research. #
#Unless specified otherwise, this is NOT an official tab from the band members.#
#------------------------------------------------------------------------------#

  Visit MetalTabs.com for more metal tablature
  
Band: Reverend Bizarre
Album: III - So Long Suckers
Song: TUDF - Teutonic Witch

Copyright (c)

Transcribed By: Wolfsherz/Jens Cautereels
Email: cautereels.jens@gmail.com

Tuning  C# F# B E G# c#

0:57-2:49
e -------------------
B -------------------
G -9-9-9-9-9-9-7-9---  Play this shit loud.
D -9-9-9-9-9-9-9-9---  Trust me, you'll feel
A -7-7-7-7-7-7-7-7---  the difference.
E -------------------

2:50-3:37
e ---------------------
B ---------------------
G ----------------4-7--
D -------------5-7-----
A -777777777777--------
E ---------------------

3:38 4:22
e ----------------------
B ----------------------
G ----------------------
D -7----9----10---12----
A -7----9----10---12----
E -5----7----8----10----

3:38-4:22
e ---------------------
B ---------------------
G ----------------4-7--
D -------------5-7-----
A -777777777777--------
E ---------------------

4:23   and   4:31
e ----------------------
B ----------------------
G ----------------------
D -7----9----10---12----
A -7----9----10---12----
E -5----7----8----10----

Bass at 4:31
G -------------------------
D -------------------------
A ---5-7--7-9--8-9---10-12-
E -5----7----8----10-------

4:36
e ---------------------------------------------------------------
B ---------------------------------------------------------------
G ---------------------------------------------------------------
D -10-9-9-9-9-9-9-9-9-10-9-9-9-9-9-9-9-9-7-----------------------
A -8--77777777777777778--77777777777777775-----------------------
E ---------------------------------------------------------------

4:44-5:15
e ---------------------------------------------------------------
B ---------------------------------------------------------------
G ---------------------------------------------------------------
D -9-9-9-9-9-9-9-9-12-1212121214-1414141411-1111111112-12121212--
A -777777777777777710-1010101012-121212129--9-9-9-9-10-10101010--
E ---------------------------------------------------------------

5:16               x3
e -------------------|--------
B -------------------|--------
G -9-9--9-12-9--7----|9-7-----
D -9-9--9-12-9--7----|----97--
A -7-7--7-10-7--5----|--------
E -------------------|-------- x2

5:28-6:33
e --|--------------------------------------------------------------
B --|--------------------------------------------------------------
G --|--------------------------------------------------------------
D 7-|9-9-9-9-9-9-9-9-12-1212121214-1414141411-1111111112-12121212--
A 5-|777777777777777710-1010101012-121212129--9-9-9-9-10-10101010--
E --|--------------------------------------------------------------

“I still have my wheels…”

6:34               x3                               x3
e -------------------|--------  e -------------------|--------------
B -------------------|--------  B -------------------|--------------
G -9-9--9-12-9--7----|9-7-----  G -9-9--9-12-9--7----|9-7----7------
D -9-9--9-12-9--7----|----97--  D -9-9--9-12-9--7----|----97---9-75-
A -7-7--7-10-7--5----|--------  A -7-7--7-10-7--5----|--------------
E -------------------|--------  E -------------------|--------------

6:51
e -----------------------------------------------------------------
B -----------------------------------------------------------------
G -9------------------99-77---------77-----------------------------
D -9------------------------1010-99----1010-99-7------9-9-9-9-9-9--
A -7---------------------------------------------10-9-7-7-7-7-7-7--
E -----------------------------------------------------------------
6:59                                               7:06
e -----------------------------------------------------------------
B -----------------------------------------------------------------
G -----------------------------------------------------4-7---------
D -99-77-55-44--77-55-44-2-----2-------------------5-7-------------
A -77-55-33-221-55-33-22-0-5-4-2-----------------------------------
E -------------------------3-2-0-----------------------------------

7:07-7:23
e ---------------------
B ---------------------
G ----------------4-7--
D -------------5-7-----
A -777777777777--------
E ---------------------

7:24-7:56
e ---------------------------------------------------------------
B ---------------------------------------------------------------
G ---------------------------------------------------------------
D -9-9-9-9-9-9-9-9-12-1212121214-1414141411-1111111112-12121212--
A -777777777777777710-1010101012-121212129--9-9-9-9-10-10101010--
E ---------------------------------------------------------------

7:43
e ----------------------------------------------------------
B -12-12121212-10-10101010-14-14141414-12-12121212-12/5-----
G ----------------------------------------------------------
D ----------------------------------------------------------
A ----------------------------------------------------------
E ---------------------------------------------------------- x2

7:57                x3
e -------------------|--------
B -------------------|--------
G -9-9--9-12-9--7----|9-7-----
D -9-9--9-12-9--7----|----97--
A -7-7--7-10-7--5----|--------
E -------------------|-------- x4

8:08
e -17-17----15-15----12-12--------------
B --------------------------------------
G --------------------------9-7---------
D ------------------------------97------
A --------------------------------------
E -------------------------------------- x2

8:20-10:52
e -----------------------
B -----------------------
G -----------------------  Bass-solo will be tabbed out sometime in a
D -2----5----7-----------  separate bass-tab, but don’t hold your breath
A -2----5----7-----------  for it, don’t have a bass in C#.
E -0----3----5-----------
 
Here starts the “Teutonic Whitch” song

11:04-12:23
e ----------------------------------
B ----------------------------------
G ----------------------------------
D -9------12------11------8---------
A -7------10------9-------6---------
E ----------------------------------

12:24-15:56
e --------------------------|------------|------------|------------
B --------------------------|------------|------------|------------
G --------------------------|------------|------------|------------
D -9—-9-9-7-9--9-9-7-9--9-9-|-7-9-12--11-|-7-9-112-15-|-7-9-12—-11-
A -7-—7-7-5-7--7-7-5-7--7-7-|-5-7-10--9--|-5-7-10--13-|-5-7-10—-9--
E --------------------------|------------|------------|------------

e ----------------------------------------------------------
B ----------------------------------------------------------
G ----------------------------------------------------------
D -121212-121212-141414-141414-161616-161616-111111-111111--
A -101010-101010-121212-121212-141414-141414-9-9-9--9-9-9---
E ----------------------------------------------------------

“Caress me now, this last time…”
14:09, rhythm is the previous riff
e -12----19----19/10--12----14-12--------------------------------------
B --------------------------------15-12--------------------------------
G ---------------------------------------------------------12----------
D ------------------------------------------------12-14-15----15-12-14-
A ---------------------------------------12-14-15----------------------
E ---------------------------------------------------------------------
  I am absolutely no soloist.
e -------------------------------------12-12/5--
B -14------------12----10----7----8-------------
G -14----12-------------------------------------
D ----------------------------------------------
A ----------------------------------------------
E ----------------------------------------------

15:57-17:44
e -----------------------------------
B -----------------------------------
G -----------------------------------
D -9----9--9----9----9--7----11------
A -7----7--7----7----7--5----9-------
E -7----7--7----7----7--5----9-------

e ---------------------------------------------------------
B ---------------------------------------------------------
G ---------------------------------------------------------
D -9----9--9----9----9--7----11----12----14----12-11-12-11-
A -7----7--7----7----7--5----9-----10----12----10-9--10-9--
E -7----7--7----7----7--5----9-----10----12----10-9--10-9--


18:06
e ----------------------------------------------------------
B ----------------------------------------------------------
G ----------------------------------------------------------
D -121212-121212-141414-141414-161616-161616-111111-111111--
A -101010-101010-121212-121212-141414-141414-9-9-9--9-9-9---
E ----------------------------------------------------------


18:07-19:29
e --------------------------|------------|------------|------------
B --------------------------|------------|------------|------------
G --------------------------|------------|------------|------------
D -9—-9-9-7-9--9-9-7-9--9-9-|-7-9-12--11-|-7-9-112-15-|-7-9-12—-11-
A -7-—7-7-5-7--7-7-5-7--7-7-|-5-7-10--9--|-5-7-10--13-|-5-7-10—-9--
E --------------------------|------------|------------|------------

e ----------------------------------------------------------
B ----------------------------------------------------------
G ----------------------------------------------------------
D -121212-121212-141414-141414-161616-161616-111111-111111--
A -101010-101010-121212-121212-141414-141414-9-9-9--9-9-9---
E ----------------------------------------------------------

“Witch! That is what you are!”

19:30-21:16
e -----------------------------------
B -----------------------------------
G -----------------------------------
D -9----9--9----9----9--7----11------
A -7----7--7----7----7--5----9-------
E -7----7--7----7----7--5----9-------

e ---------------------------------------------------------
B ---------------------------------------------------------
G ---------------------------------------------------------
D -9----9--9----9----9--7----11----12----14----12-11-12-11-
A -7----7--7----7----7--5----9-----10----12----10-9--10-9--
E -7----7--7----7----7--5----9-----10----12----10-9--10-9--

21:16-22:08
e ------------------------
B ------------------------
G ---------11-------------
D -9-11-12-9--12-11-------
A -7-9--10----10-9--------
E ------------------------

e ------------------------
B ------------------------
G ------------------------
D -5--7--9--12--9--7------
A -3--5--7--10--7--5------
E ------------------------
 
22:09-22:22
e ---------------------------------
B ---------------------------------
G ---------------------------------
D -9---7---5----12---11---9--------
A -7---5---3----10---9----7--------
E ---0---0---------0----0----------

22:23-22:48
e ------------------------
B ------------------------
G ---------11-------------
D -9-11-12-9--12-11-------
A -7-9--10----10-9--------
E ------------------------

e ------------------------
B ------------------------
G ------------------------
D -5--7--9--12--9--7------
A -3--5--7--10--7--5------
E ------------------------

22:49-23:59
e ---------------------------------
B --------------------------------- “Bring back my heart
G ---------------------------------  You don’t need it now
D -9---7---5----12---11---9--------  I have gone so far
A -7---5---3----10---9----7--------  I am lost somehow...”
E ---0---0---------0----0----------


25:00
e ---------------------
B ---------------------
G ---------------------
D -12-11--9-11--7-9----
A -10-9---7-9---5-7----
E ---------------------

25:02-26:48
e -----------------------------------
B -----------------------------------
G -----------------------------------
D -9----9--9----9----9--7----11------
A -7----7--7----7----7--5----9-------
E -7----7--7----7----7--5----9-------

e ---------------------------------------------------------
B ---------------------------------------------------------
G ---------------------------------------------------------
D -9----9--9----9----9--7----11----12----14----12-11-12-11-
A -7----7--7----7----7--5----9-----10----12----10-9--10-9--
E -7----7--7----7----7--5----9-----10----12----10-9--10-9--



26:49-end
e ---------------------
B ---------------------
G ----------------4-7--
D -------------5-7-----
A -777777777777--------
E ---------------------

  Visit MetalTabs.com for more metal tablature

bottom separator

Contact Us | Privacy Policy | Disclaimer | Legal Notice
Copyright © 2001-2014 MetalTabs.com. All Rights Reserved.