top separator

Home

Forum

What's New

Submit a Tab

FAQ

Links

Contact Us

Link to Us

MuSpy.com

MetalTabs.com logo

Bands

0-9

A

B

C

D

E

F

G

H

I

J

K

L

M

N

O

P

Q

R

S

T

U

V

W

X

Y

Z

Search

What

Where
 

Virus (NO) - "Shame Eclipse" Guitar Tab

Plain Text Version
More Virus (NO) Tabs

Hits: 1542
Rated: 5.00 out of 5 (2 votes)
Updated: 2008-11-17 04:09:06

 

By:

trognz

sendpm.gif

email.gif

Important note
This tab is available online because we obtained explicit permission from Virus (NO) or their label.


#----------------------------------PLEASE NOTE---------------------------------#
#This file is the author's own work and represents their interpretation of the #
#song. You may only use this file for private study, scholarship, or research. #
#Unless specified otherwise, this is NOT an official tab from the band members.#
#------------------------------------------------------------------------------#

  Visit MetalTabs.com for more metal tablature
  
Band:  Virus
Album: The Black Flux
Song:  Shame Eclipse

Copyright (c) Season of Mist 2008
Version 1.0 - 11/11/2008

Transcribed By: Trognz
Email:          trognz@gmail.com

Comments:

Another great hypnotic song from this genius band!
This song has actually only 3 different parts to be played on the guitar.
Some differences exists on almost each passages, but the whole idea is here.
It seems that they play it with 2 guitars sharing the notes, so that they
ring longer and have some little pan effect, but even if this transcription
is far from 100% accurate, I think it gives a fair idea for a single player.

There is a question about how Czral plays most of his songs, fingers or pick?
I would say fingers for most - not that I want to raise the debate here -
but you can fully play this one with a pick.
Just put it a bit of your dirty distortion and remember to let ring all over
the piece as much as possible.

Any comments are welcome!
I hope you will enjoy it.
Trognz

Tuning D G C F A D
                                           Part A:
D||-------0-------0--|-------------------||--------------------|
A||------------------|-------0-----------||--------1--1--1--0--|
F||--6-------5-------|-------------------||*-------------------|
C||--6-------5-------|--6-------5--4-----||*--3*---------------|
G||--4-------3-------|--6-------5--4-----||---3*---------------|
D||------------------|--4-------3--2--0--||---1*---------------|

* let this chord ring while playing the melody above (beware your fingers :)

--------------------|-------------------|-----------0-----0--|
-----------0--------|-------------1--1--|--1--0--------------|
--1--2--2--2--2--2--|--2--2-------------|--------6-----5-----|
--------------------|--------3*---------|--------6-----5-----|
--------------------|--------3*---------|--------4-----3-----|
--------------------|--------1*---------|--------------------|

                              * same here.


1.2.3.                 4.
---------------------||-------0-----0--|-------------------|
-----0--0------------||----------------|-----0--0----------|
--------------------*||----6-----5-----|-------------------|
--6--------5--4-----*||----6-----5-----|--6--------5--4----|
--6--------5--4------||----4-----3-----|--6--------5--4----|
--4--------3--2--0---||----------------|--4--------3--2----|


                Part B:
----------------||--------0--0--------|--------------------|
----------------||--------------4--4--|--------------------|
----------------||*-------------------|--5--5--------------|
----------------||*-------------------|--------7--7-----7--|
----------------||---(0)*-------------|--------------0-----|
----------------||--------------------|--------------------|

                        * this note is to be done only on 2nd passage and others


--------------------|--------0-----------|---------------------|
--------------------|-----4-----4--------|---------------------|
--------------------|--5-----------5-----|---------------------|
-----7-----7-----7--|-----------------7--|---------------------|
--0-----0-----0-----|--------------------|--0------------3-----|
--------------------|--------------------|-----0--1--/5-----5--|


----------------------|---------------------|---------------------||
----------------------|---------------------|---------------------||
----------------------|---------------------|--------------------*||
-------------------5--|-----5-----4------1--|-----1-----1-----1--*||
--3-----3h--5--/7-----|--7-----7-----6\-----|--3-----3-----3------||
-----5----------------|---------------------|---------------------||


Part C:
--------------------|--------------------|--------------------|----------------|
--------1--1--1--0--|--------------------|--------------------|----------------|
*-------------------|--2--2--------------|--------------------|----------------|
*-------------------|--------3-----3-----|--3-----------------|----------------|
---0*---------------|-----------0-----0--|-----0--------------|----------------|
--------------------|--------------------|--------0--1--/4----|--1--------0----|

    * this note is to be done only on 1st passage (let ring)

---------------------|-------------------|--------------------||
---9-----8-----------|--------------0----|--------------0-----||
--10-----9-----------|--------6----------|--------4----------*||
--10-----9-----9\----|-----5-----5-------|-----4-----4-------*||
--11----10-----------|--4----------------|--2-----------------||
---------------------|-------------------|--------------------||

then play Part A again ad lib...

END

  Visit MetalTabs.com for more metal tablature

bottom separator

Contact Us | Privacy Policy | Disclaimer | Legal Notice
Copyright © 2001-2014 MetalTabs.com. All Rights Reserved.