top separator

Home

Forum

What's New

Submit a Tab

FAQ

Links

Contact Us

Link to Us

MuSpy.com

MetalTabs.com logo

Bands

0-9

A

B

C

D

E

F

G

H

I

J

K

L

M

N

O

P

Q

R

S

T

U

V

W

X

Y

Z

Search

What

Where
 

Mourning Beloveth - "Primeval Rush" Bass Tab

Plain Text Version
More Mourning Beloveth Tabs

Hits: 1262
Updated: 2008-10-28 06:21:01

 

By:

Paddy

sendpm.gif

email.gif

Important note
This tab is available online because we obtained explicit permission from Mourning Beloveth or their label.


#----------------------------------PLEASE NOTE---------------------------------#
#This file is the author's own work and represents their interpretation of the #
#song. You may only use this file for private study, scholarship, or research. #
#Unless specified otherwise, this is NOT an official tab from the band members.#
#------------------------------------------------------------------------------#

  Visit MetalTabs.com for more metal tablature
  
================================================================================
                       M O U R N I N G   B E L O V E T H

                                       -

                           P R I M E V A L   R U S H
================================================================================


                              A DISEASE FOR THE AGES
                         (c) Prophecy Productions - 2008
                        http://www.mourningbeloveth.com/


                              Tune Down 1 & 1/2 Steps
                                    C# F# B E

                                  Tempo = 50 BPM
                               Time Signature = 4/4



                          -----------------------------
                                 Transcribed by

                                 PADDY MCMULLAN
                           stinkypoohpants@yahoo.co.uk

                                   Version 1.0
                                26th October 2008
                             -----------------------

                             Tablature Symbols Used:


 p         -  Pull-Off
 h         -  Hammer-On
 (/)       -  Legato Slide (Blank space indicates length of slide)
 ( )       -  Ghost Note/Tied Note/Implied Note
 REST      -  Rest and sustain rest for duration of blank space
 |_3_|     -  Triplet notes



================================================================================
Rest for 6 Bars [ On the 6th bar the tempo becomes 62 BPM ]
================================================================================

================================================================================
Riff 1: Play 4 times
================================================================================


  x                       1
||--R--           ------||--------------------------------------|
||--E--           ------||--------------------------------------|
||--S--           --12--||--12--10--10--10----10h 12-12p 10-10--|
||--T--           ------||--------------------------------------|

 2                     |__3___|  3
|-------------------------------|------------------------------|
|-------------------------------|------------------------------|
|-------------------------------|------------------------------|
|--10------10--10------10-10-10-|--10------10-10-10---10---10--|

 4                     |__3___|  5
|-------------------------------|--------------------------|
|-------------------------------|--------------------------|
|-------------------------------|--------------------------|
|--10------10--10------10-10-10-|--10--------10---10  \ 5--|


 6                  |_3_|  7                        8
|-------------------------|------------------------|-----------------------| |
|-------------------------|------------------------|-----------------------|*|
|-------------------------|------------------------|-------------------12--|*|
|--5------5--5------5-5-5-|--5------5-5-5---5---5--|--5------5--5----------| |



Bar x is played the first time only; it serves as a segue between the guitar
intro and the first main riff.



After finishing the last repeat, play bar 1 once more before moving onto the
next riff.



================================================================================
Riff 2: Play 3 times [ Tempo = 64 BPM ]
================================================================================


||----------------------------------|----------------------------------|
||----------------------------------|----------------------------------|
||----------------------------------|--3------3--3--3--3------3--3--3--|
||--0------0--0--0--0------0--0--0--|----------------------------------|


|----------------------------------|---------------------------------| |
|----------------------------------|---------------------------------|*|
|--0------0--0--0--0------0--0--0--|--2------2--2--2--2----2----2----|*|
|----------------------------------|---------------------------------| |



During the 3 repeats of this riff, the tempo gradually increases to 92 BPM.



================================================================================
Riff 3: Play twice [ Tempo = 65 BPM ]
================================================================================


||--------------------------|--------------------------|
||--------------------------|---------2-4-5-4-2--4--5--|
||--------------------2--3--|--2-----------------------|
||--0------0-2-3-2-0--------|--------------------------|


|----------------------|------------------------| |
|----------------------|------------------------|*|
|--3------3--3----3----|--2------2--2---0-------|*|
|----------------------|------------------3-2---| |



================================================================================
Riff 4: Play 4 times [ Tempo = 70 BPM ]
================================================================================


||---------------------------|---------------------------|
||---------------------------|---------------------------|
||--------------------0-2-3--|--2------------------------|
||--0--0--0--0--0--0---------|-----0--0--0--0--0--0-2-3--|


|---------------------------|---------------------------| |
|---------------------------|---------------------------|*|
|--3--3--3--3--3--3--3-2-3--|--2--2--2--2--2--2--3-2----|*|
|---------------------------|------------------------3--| |



================================================================================
Play Riff 3 twice [ Tempo = 68 BPM ]
================================================================================

================================================================================
Play Riff 4 four times [ Tempo = 70 BPM ]
================================================================================

================================================================================
Riff 5: Repeats outlined below [ Tempo = 76 BPM ]
================================================================================


=======
Part 1: x 2
=======


    |__3__|  |__3__|  |__3__|  |__3__|
||--------------------------------------| |
||--------------------------------------|*|
||--------------------------------------|*|
||--0--0--0--0--0--0--0--0--0--0--0--0--| |



=======
Part 2: x 2
=======


   |__3__|  |__3__|  |__3__|  |__3__|
|--------------------------------------| |
|--------------------------------------|*|
|-----------7-----7-----------7-----7--|*|
|--0--0--0-----0-----0--0--0-----0-----| |



=======
Part 3: x 4
=======


   |__3__|  |___3___|  |__3__|  |__3__|
|----------------------------------------|
|----------------------------------------|
|-----------10-----10-----------9-----9--|
|--0--0--0------0------0--0--0-----0-----|


   |__3__|  |__3__|  |__3__|  |__3__|
|--------------------------------------|
|--------------------------------------|
|-----------7-----7-----------7-----7--|
|--0--0--0-----0-----0--0--0-----0-----|


   |__3__|  |__3__|  |__3__|  |__3__|
|--------------------------------------|
|--------------------------------------|
|-----------3-----3-----------5-----5--|
|--0--0--0-----0-----0--0--0-----0-----|


   |__3__|  |__3__|  |__3__|  |__3__|
|--------------------------------------|
|--------------------------------------|
|-----------7-----7-----------7-----7--|
|--0--0--0-----0-----0--0--0-----0-----|


   |__3__|  |__3__|  |__3__|  |__3__|
|--------------------------------------| |
|--------------------------------------|*|
|-----------7-----7-----------7-----7--|*|
|--0--0--0-----0-----0--0--0-----0-----| |



Over the course of this riff's repeats the tempo gradually increases to 84 BPM.



================================================================================
Riff 6: Play 4 times
================================================================================


    |__3__|  |__3__|  |__3__|  |__3__|
||--------------------------------------|
||--------------------------------------|
||--------------------------------------|
||--0--0--0--0--0--0--0--0--0--0--0--0--|


   |__3__|  |__3__|  |__3__|  |__3__|
|--------------------------------------|
|--------------------------------------|
|--------------------------------------|
|--0--0--0--0--0--0--0--0--0--3--2--0--|


    |__3__|  |__3__|  |__3__|  |__3__|
|---------------------------------------|
|---------------------------------------|
|--3--3--3--3--3--3--(3 /5)-5--5--5--5--|
|---------------------------------------|

    |__3__|  |__3__|  |__3__|  |__3__|
|---------------------------------------|
|---------------------------------------|
|--(5 /7)-7--7--7--7--7--7--7--7--7--7--|
|---------------------------------------|

   |__3__|  |__3__|  |__3__|
|------------------------------------| |
|------------------------------------|*|
|--7--7--7--7--7--7--7--7--7--7--  \-|*|
|------------------------------------| |



================================================================================
Play "Part 2" & "Part 3" of Riff 5; only play "Part 3" twice
================================================================================

================================================================================
Riff 7: Play 4 times [ Tempo = 64 BPM ]
================================================================================


||---------------------|--------------------|----------------------|
||---------------------|--------------------|----------------------|
||--10--------9--------|--7--------6--------|--7-------------------|
||--0---------0--------|--0--------0--------|--0----7----7------5--|


|-------------------|--------------------|--------------------|
|-------------------|--------------------|--------------------|
|-------------------|--------------------|--------------------|
|--7----------------|--8--------7--------|--5--------3--------|

   |__3__|                        |__3__|
|-------------------------|--------------------------| |
|-------------------------|--------------------------|*|
|-----------3----3--------|-(3)---3--2--0------------|*|
|--2--3--2----------------|----------------3----2----| |



During the first 3 repeats the tempo gradually increases to 84 BPM, and during
the last 3 bars the tempo gradually decreases again to 66 BPM.



After the last repeat, play and hold the following note:



||-----------||
||-----------||
||-----------||
||--0--------||



================================================================================
End
================================================================================


Tab summary:        [Rest for 6 bars]
                    Riff 1 x 4
                    Riff 2 x 3
                    Riff 3 x 2
                    Riff 4 x 4
                    Riff 3 x 2
                    Riff 4 x 4
                    Riff 5:
                           Part 1 x 2
                           Part 2 x 2
                           Part 3 x 4
                    Riff 6 x 4
                    Riff 5:
                           Part 2 x 2
                           Part 3 x 2
                    Riff 7 x 4

                    END

  Visit MetalTabs.com for more metal tablature

bottom separator

Contact Us | Privacy Policy | Disclaimer | Legal Notice
Copyright © 2001-2014 MetalTabs.com. All Rights Reserved.