top separator

Home

Forum

What's New

Submit a Tab

FAQ

Links

Contact Us

Link to Us

MuSpy.com

MetalTabs.com logo

Bands

0-9

A

B

C

D

E

F

G

H

I

J

K

L

M

N

O

P

Q

R

S

T

U

V

W

X

Y

Z

Search

What

Where
 

Mourning Beloveth - "Primeval Rush" Guitar Tab

Plain Text Version
More Mourning Beloveth Tabs

Hits: 1406
Updated: 2008-10-28 06:20:54

 

By:

Paddy

sendpm.gif

email.gif

Important note
This tab is available online because we obtained explicit permission from Mourning Beloveth or their label.


#----------------------------------PLEASE NOTE---------------------------------#
#This file is the author's own work and represents their interpretation of the #
#song. You may only use this file for private study, scholarship, or research. #
#Unless specified otherwise, this is NOT an official tab from the band members.#
#------------------------------------------------------------------------------#

  Visit MetalTabs.com for more metal tablature
  
================================================================================
                       M O U R N I N G   B E L O V E T H

                                       -

                           P R I M E V A L   R U S H
================================================================================


                              A DISEASE FOR THE AGES
                         (c) Prophecy Productions - 2008
                        http://www.mourningbeloveth.com/


                              Tune Down 1 & 1/2 Steps
                                  C# F# B E G# C#

                                  Tempo = 50 BPM
                               Time Signature = 4/4



                          -----------------------------
                                 Transcribed by

                                 PADDY MCMULLAN
                           stinkypoohpants@yahoo.co.uk

                                   Version 1.0
                                23rd October 2008
                             -----------------------

                             Tablature Symbols Used:


 P.M...    -  Palm Mute
 p         -  Pull-Off
 h         -  Hammer-On
 x         -  Muted Note/Dead Note
 (/)       -  Legato Slide (Blank space indicates length of slide)
 \         -  Slide Down to/Down From (Blank space indicates length of slide)
 /         -  Slide Up To/Up From (Blank space indicates length of slide)
 ( )       -  Ghost Note/Tied Note/Implied Note
 REST      -  Rest and sustain rest for duration of blank space
 |_3_|     -  Triplet notes
 ~~        -  Vibrato
 x\x\x     -  Fret noise



================================================================================
Intro: Guitar 4 with Clean Tone (Play once through)
================================================================================


* Let notes ring wherever possible *


||------------------------|-----------------------|
||------------------------|-----------------------|
||--12------10--10--------|-(10)------9---10---9--|
||--0-------0---0---------|-(0)-------0--------0--|
||--0-------0-------------|-(0)-------0--------0--|
||------------------------|-----------------------|


|------------------------|-----------------------|---------------------|
|------------------------|-----------------------|---------------------|
|--12------10--10--------|-(10)------10--9  \ 7--|--7------6--6--------|
|--0-------0---0---------|-(0)-------0--------0--|--7------7--7--------|
|--0-------0-------------|-(0)-------0-----------|--0------0-----------|
|------------------------|-----------------------|---------------------|


|----------------------|-----------------*----||
|----------------------|-----------------R-  -||
|-(6)-------6---7---9--|--7------6--6----E-  -||
|-(7)-------7-------7--|-(7)-----7--7----S-  -||
|-(0)-------0-------0--|-(0)-----0-------T-  -||
|----------------------|----------------------||



* At this point the tempo increases to 62 BPM



================================================================================
Riff 1: Guitars 1 & 2 with Heavy Distortion (Play 4 times)
================================================================================



Bar x is only played the first time; it serves as a segue between the intro and
Riff 1.



[ Note the changes from dead notes to open strings between the octave chords ]


  x                       1
||----------------------||----------------------------------------|
||--R-             -----||----------------------------------------|
||--E-             -14--||--14--12--12--12----(12/14)-(14\12)-12--|
||--S-             -x---||--x---x---x---x------x-------x------x---|
||--T-             -12--||--12--10--10--10----(10/12)-(12\10)-10--|
||----------------------||----------------------------------------|


 2                    |__3__|    3
|-------------------------------|------------------------|
|-------------------------------|------------------------|
|--12------10--10---------------|--10--------9---10---9--|
|--0-------0---0------0--0--0---|--0---------0---x----0--|
|--10------8---8------8--8--8---|--8---------7---8----7--|
|-------------------------------|------------------------|
                     P.M.....

 4                        |__3__|   5
|----------------------------------|------------------------|
|----------------------------------|------------------------|
|-(10/12)------10--10--------------|--10--------10---9---7--|
|--0-----------0---0------0--0--0--|--0---------0----0---0--|
|-(8/ 10)------8---8------8--8--8--|--8---------8----7---5--|
|----------------------------------|------------------------|
                          .......

 6                       |__3__|   7
|---------------------------------|-----------------------------|
|---------------------------------|-----------------------------|
|---------------------------------|-----------------------------|
|-(9/12)-----11--11---------------|--11--------11---12--(12/14)-|
|--0---------0---0-------0--0--0--|--0---------0----0----0------|
|-(7/10)-----9---9-------9--9--9--|--9---------9----10--(10/12)-|
                         .......
 8
|--------------------------| |
|--------------------------| |
|----------------------14--|*|
|--12------11--11------x---|*|
|--0-------0---0-------12--| |
|--10------9---9-----------| |



Guitar 1 plays the riff as written, but guitar 2 substitutes bars x, 1 and 8
with the following:



========================
Bars x & 1 Substitution:
========================


  x                       1
||----------------------||--------------------------------------|
||--R-             -----||--------------------------------------|
||--E-             -----||--------------------------------------|
||--S-             -11--||--11--11--11--11----11-11-11-11-11-11-|
||--T-             -0---||--0---0---0---0-----0--0--0--0--0--0--|
||------------------9---||--9---9---9---9-----9--9--9--9--9--9--|



===================
Bar 8 Substitution:
===================


|--------------------------|
|--------------------------|
|--------------------------|
|--12------11--11------11--|
|--0-------0---0-------0---|
|--10------9---9-------9---|




After repeating the riff 4 times, play bar 1 once more before moving onto the
next riff.



================================================================================
Riff 2a: Guitar 1 (Play once through) [ Tempo = 64 BPM ]
================================================================================


  1                                2
||--------------------------------|-------------------------------|
||--------------------------------|-------------------------------|
||--------------------------------|-------------------------------|
||--2--------------2---------2----|--2--------2--2--2--------2----|
||--2------2-------2------2--2----|--3--------3--3--3--------3----|
||--0------0----0--0------0--0----|-------------------------------|

 3                               4
|-------------------------------|---------------------------------|
|-------------------------------|---------------------------------|
|-------------------------------|---------------------------------|
|--2------2--2--2--2------------|--4------4--4--4--4----4----4----|
|--0------0--0--0--0------------|--2------2--2--2--2----2----2----|
|-------------------------------|---------------------------------|
             ....                           ...

 5                                 6
|---------------------------------|-------------------------------|
|---------------------------------|-------------------------------|
|---------------------------------|-------------------------------|
|--2---------------2---------2----|--2--------2--2--2--------2----|
|--2------2--2--2--2------2--2----|--3--------3--3--3--------3----|
|--0------0--0--0--0------0--0----|-------------------------------|
             ....

 7                               8
|-------------------------------|---------------------------------|
|-------------------------------|---------------------------------|
|-------------------------------|---------------------------------|
|--2------2--2--2--2------------|--4------4--4--4--4----4----4----|
|--0------0--0--0--0------------|--2------2--2--2--2----2----2----|
|-------------------------------|---------------------------------|
             ....                           ...

 9                                   10
|-----------------------------------|--------------------------------|
|-----------------------------------|--------------------------------|
|-----------------------------------|--0------0--0--0--0--------0----|
|--2---------------2---------2------|--2------2--2--2--2--------2----|
|--2------2--2--2--2------2--2--2-2-|--3------3--3--3--3--------3----|
|--0------0--0--0--0------0--0--0-0-|--------------------------------|
             ....               ...

 11                              12
|-------------------------------|-------------------------------------|
|-------------------------------|-------------------------------------|
|-------------------------------|-------------------------------------|
|--2--------2--2--2--------2----|--4------4--4--4--4----4----4--------|
|--0--------0--0--0--------0----|--2------2--2--2--2----2----2-(5/7\ -|
|-------------------------------|------------------------------(5/7\ -|
            ....                            ...

 13                                  14
|-----------------------------------|--------------------------------|
|-----------------------------------|--------------------------------|
|-----------------------------------|--0------0--0--0--0--------0----|
|--2---------------2---------2------|--2------2--2--2--2--------2----|
|--2------2--2--2--2------2--2--2-2-|--3------3--3--3--3--------3----|
|--0------0--0--0--0------0--0--0-0-|--------------------------------|
             ....               ...

 15                              16
|-------------------------------|---------------------------------|
|-------------------------------|---------------------------------|
|-------------------------------|---------------------------------|
|--2--------2--2--2--------2----|--4------4--4--4--4----4----4----|
|--0--------0--0--0--------0----|--2------2--2--2--2----2----2----|
|-------------------------------|---------------------------------|
            ....                            ...

 17                                  18
|-----------------------------------|--------------------------------|
|-----------------------------------|--------------------------------|
|-----------------------------------|--0------0--0--0--0--------0----|
|--2---------------2---------2------|--2------2--2--2--2--------2----|
|--2------2--2--2--2------2--2--2-2-|--3------3--3--3--3--------3----|
|--0------0--0--0--0------0--0--0-0-|--------------------------------|
             ....               ...

 19                              20
|-------------------------------|---------------------------------|
|-------------------------------|---------------------------------|
|-------------------------------|---------------------------------|
|--2--------2--2--2--------2----|--4------4--4--4--4----4----4----|
|--0--------0--0--0--------0----|--2------2--2--2--2----2----2----|
|-------------------------------|---------------------------------|
            ....                            ...

 21                                  22
|-----------------------------------|--------------------------------|
|-----------------------------------|--------------------------------|
|-----------------------------------|--0------0--0--0--0--------0----|
|--2---------------2---------2------|--2------2--2--2--2--------2----|
|--2------2--2--2--2------2--2--2-2-|--3------3--3--3--3--------3----|
|--0------0--0--0--0------0--0--0-0-|--------------------------------|
             ....               ...

 23                              24
|-------------------------------|---------------------------------||
|-------------------------------|---------------------------------||
|-------------------------------|---------------------------------||
|--2--------2--2--2--------2----|--4------4--4--4--4----4----4----||
|--0--------0--0--0--------0----|--2------2--2--2--2----2----2----||
|-------------------------------|---------------------------------||
            ....                            ...



================================================================================
Riff 2b: Guitar 2 (Play once through)
================================================================================


  1                               2
||-------------------------------|--------------------------------|
||-------------------------------|--------------------------------|
||-------------------------------|--------------------------------|
||--2------2--------2------------|--2------2--2--2--2--------2----|
||--2------2--2--2--2------------|--3------3--3--3--3--------3----|
||--0------0--0--0--0------------|--------------------------------|
             ...
 3
|-----------------------------------|
|-----------------------------------|
|-----------------------------------|
|--2------2--2--2--2----------------|
|--0------0--0--0--0--------0h 2-3--|
|-----------------------------------|
             ....
 4
|-----------------------------------------|
|-----------------------------------------|
|-----------------------------------------|
|-----------------------------------------|
|--2~~-----2--2--0h 2-2~~---2----(5/7\) --|
|-----------------------------------------|

 5                                 6
|---------------------------------|--------------------------------|
|---------------------------------|--------------------------------|
|---------------------------------|------------0--0--0--------0----|
|--2---------------2---------2----|--2------2--2--2--2--------2----|
|--2------2--2--2--2------2--2----|--3------3--3--3--3--------3----|
|--0------0--0--0--0------0--0----|--------------------------------|
             ....

 7                                   8
|-----------------------------------|--------------------------------------|
|-----------------------------------|--------------------------------------|
|-----------------------------------|--------------------------------------|
|--2------2--2--2--2----------------|----------------2--1--(2 / 4)----5----|
|--0------0--0--0--0--------0h 2-3--|--2~~-----2--2------------------------|
|-----------------------------------|--------------------------------------|
             ....
 9                                  10
|----------------------------------|-------------------------------------|
|----------------------------------|-------------------------------------|
|----------------------------------|-------------------------------------|
|--2---------------2---------------|-------------------------------------|
|--2------2--2--2---------2--2--5--|--5--3~~---3--3--2--3~~-------2--3\ -|
|--0-------------------------------|-------------------------------------|

 11                   |__3__|
|------------------------------------------|
|------------------------------------------|
|------------------------------------------|
|-----(2     /4)--5--(4h 5p 4)\2-----(2)/ -|
|--0---------------------------------------|
|------------------------------------------|


 12                             Fret noise
|--------------------------------------|
|--------------------------------------|
|--------------------------------------|
|--4----5  \  2  /  4~~-----  \--x\  --|
|--------------------------------x\  --|
|--------------------------------x\  --|

 13                                 14
|----------------------------------|-------------------------------------|
|----------------------------------|-------------------------------------|
|----------------------------------|-------------------------------------|
|--2---------------2---------------|-------------------------------------|
|--2------2--2--2---------2--2--5--|--5--3~~---3--3--2--3~~-------2--3\ -|
|--0-------------------------------|-------------------------------------|

 15                   |__3__|
|------------------------------------------|
|------------------------------------------|
|------------------------------------------|
|-----(2     /4)--5--(4h 5p 4)\2-----(2)/ -|
|--0---------------------------------------|
|------------------------------------------|

 16                                   17
|------------------------------------|----------------------------------|
|------------------------------------|----------------------------------|
|------------------------------------|----------------------------------|
|--4----5  \  2  /  9~~--------   \--|--2---------------2---------------|
|------------------------------------|--2------2--2--2---------2--2--5--|
|------------------------------------|--0-------------------------------|

 18
|-------------------------------------|
|-------------------------------------|
|-------------------------------------|
|-------------------------------------|
|--5--3~~---3--3--2--3~~-------2--3\ -|
|-------------------------------------|

 19                   |__3__|
|------------------------------------------|
|------------------------------------------|
|------------------------------------------|
|-----(2     /4)--5--(4h 5p 4)\2------(2) /|
|--0---------------------------------------|
|------------------------------------------|

 20                                    21
|-------------------------------------|----------------------------------|
|-------------------------------------|----------------------------------|
|-------------------------------------|----------------------------------|
|--4----5  \  2 / 4--4~~---------  \--|--2---------------2---------------|
|-------------------------------------|--2------2--2--2---------2--2--5--|
|-------------------------------------|--0-------------------------------|

 22
|-------------------------------------|
|-------------------------------------|
|-------------------------------------|
|-------------------------------------|
|--5--3~~---3--3--2--3~~-------2--3\ -|
|-------------------------------------|

 23                   |__3__|
|------------------------------------------|
|------------------------------------------|
|------------------------------------------|
|-----(2     /4)--5--(4h 5p 4)\2------(2) /|
|--0---------------------------------------|
|------------------------------------------|

 24
|-----------------------------------||
|-----------------------------------||
|-----------------------------------||
|--4----5  \  2  /  9~~--------  \--||
|-----------------------------------||
|-----------------------------------||



================================================================================
Riff 3: Guitars 1 & 2 (Play twice) [ Tempo = 65 BPM ]
================================================================================


||--------------------------------|--------------------------------|
||--------------------------------|--------------------------------|
||--------------------------------|--------------------------------|
||--2-----------------------------|---------2--4--5--4--2--4--5  \-|
||--2------------------2--2--2h3--|--2-----------------------------|
||--0------0--2--3--2--0----------|--------------------------------|
           ..........                       ..........

|----------------------|---------------------------| |
|----------------------|---------------------------| |
|----------------------|---------------------------|*|
|--2------2--2----2----|--2------1--1--------------|*|
|--3------3--3----3----|--2------2--2---0----------| |
|----------------------|-------------------3--2~~--| |
                                        ....



================================================================================
Lead Fill 1: Guitar 3 with Heavy Distortion (Play once)
================================================================================


[ This fill is played during the last 2 bars (of the last repeat) of Riff 3 ]


||-------------------------------------------------|
||-------------------------------------------------|
||--------2---2/4-2/4-5-4-5/7-5-7/9~~------9h10p9--|
||--2-4-5---5--------------------------------------|
||-------------------------------------------------|
||-------------------------------------------------|


|-------------------------------||
|-------------------------------||
|--8~~-----8-9-(9/11)~~-----  \-||
|-------------------------------||
|-------------------------------||
|-------------------------------||



================================================================================
Riff 4a: Guitar 1 (Play 4 times) [ Tempo = 70 BPM ]
================================================================================


||-----------------------------|------------------------------|
||-----------------------------|------------------------------|
||-----------------------------|------------------------------|
||--2--2--2--2--2--2-----------|------2--2--2--2--2--2--4--5--|
||--2--2--2--2--2--2--0--2--3--|--2~~-2--2--2--2--2-----------|
||--0--0--0--0--0--0-----------|------0--0--0--0--0-----------|
       ...................               ................

|---------------------------|-------------------------------| |
|---------------------------|-------------------------------| |
|--0--------0-----0------0--|-------------------------------|*|
|--2--2--2--2--2--2--2-2-2--|--1--1--1--1--1----------------|*|
|--3--3--3--3--3--3--3-3-3--|--2--2--2--2--2--2~~-3--2------| |
|---------------------------|---------------------------3~~-| |
      ....    ...    ...          ....    ...     ....



================================================================================
Riff 4b: Guitar 2 (Play 4 times)
================================================================================



||-----------------------------|------------------------------|
||-----------------------------|------------------------------|
||-----------------------------|------------------------------|
||--2--2--2--2--2--2--2--4--5--|--2~~-2--2--2--2--2--2--4--5--|
||--2--2--2--2--2--2-----------|------2--2--2--2--2-----------|
||--0--0--0--0--0--0-----------|------0--0--0--0--0-----------|
       ...................            ...................

|------------------------------|------------------------------| |
|------------------------------|------------------------------| |
|--0--------0-----0------------|------------------------------|*|
|--2--2--2--2--2--2--5--4--5~~-|--1--1--1--1--1--1--4--2------|*|
|--3--3--3--3--3--3------------|--2--2--2--2--2--2--------5~~-| |
|------------------------------|------------------------------| |
      ....    ...    ....            ....    ...    ....



================================================================================
Guitars 1 & 2 play Riff 3, while Guitar 3 plays Lead Fill 2 [ Tempo = 68 BPM ]
================================================================================

================================================================================
Lead Fill 2: Guitar 3 (Play once through)
================================================================================


                        |_3_|
||------------------------------------------------|
||----------------------------3-------------------|
||--------2---2/4-2/4-5-4h5p4---------------------|
||--2-4-5---5-------------------2~~--------2h4p2--|
||------------------------------------------------|
||------------------------------------------------|


|---------------------------------||
|---------------------------------||
|-----------4-2-2h4~~--2----------||
|--1~~---1---------------5-4~~  \-||
|---------------------------------||
|---------------------------------||



================================================================================
Guitars 1 & 2 play Riff 4 x 4, ending on the following  [ Tempo = 70 BPM ]
================================================================================


[ This part serves as a segue between Riff 3 and Riff 5 ]


||---------------------|-------------------|
||-----R--           --|--               --|
||-----E--           --|--               --|
||--2--S--           --|--               --|
||--2--T--           --|--               --|
||--0------------------|-------------------|

||--------------------------------------| |
||--------------------------------------| |
||--------------------------------------|*| X 2
||--------------------------------------|*|
||-----------7-----7-----------7-----7--| |
||--0--0--0-----0-----0--0--0-----0-----| |
    .......    ...    .......    ...



================================================================================
Riff 5: Guitars 1 & 2 (Play twice) [ Tempo = 76 BPM ]
================================================================================


  1 |__3__|  |___3___|  |__3__|  |__3__|
||----------------------------------------|
||----------------------------------------|
||----------------------------------------|
||----------------------------------------|
||-----------10-----10-----------9-----9--|
||--0--0--0------0------0--0--0-----0-----|
    .......     ...     .......    ...


 2 |__3__|  |__3__|  |__3__|  |__3__|   3 |__3__|  |__3__|  |__3__|  |__3__|
|--------------------------------------|--------------------------------------|
|--------------------------------------|--------------------------------------|
|--------------------------------------|--------------------------------------|
|--------------------------------------|--------------------------------------|
|-----------7-----7-----------7-----7--|-----------3-----3-----------5-----5--|
|--0--0--0-----0-----0--0--0-----0-----|--0--0--0-----0-----0--0--0-----0-----|
   .......    ...    .......    ...       .......    ...    .......    ...


 4 |__3__|  |__3__|  |__3__|  |__3__|   5 |__3__|  |__3__|  |__3__|  |__3__|
|--------------------------------------|--------------------------------------|
|--------------------------------------|--------------------------------------|
|--------------------------------------|--------------------------------------|
|--------------------------------------|--------------------------------------|
|-----------7-----7-----------7-----7--|-----------7-----7-----------7-----7--|
|--0--0--0-----0-----0--0--0-----0-----|--0--0--0-----0-----0--0--0-----0-----|
   .......    ...    .......    ...       .......    ...    .......    ...


 6 |__3__|  |___3___|  |__3__|  |___3___|
|------------------------------------------|
|------------------------------------------|
|------------------------------------------|
|------------------------------------------|
|-----------10-----10-----------12-----12--|
|--0--0--0------0------0--0--0------0------|
   .......     ...     .......     ...


 7 |__3__|  |___3___|  |__3__|  |___3___|
|------------------------------------------|
|------------------------------------------|
|------------------------------------------|
|------------------------------------------|
|-----------14-----14-----------14-----14--|
|--0--0--0------0------0--0--0------0------|
   .......     ...     .......     ...


 8 |______3_____| |____3___|  |______3_____| |___3__|
|------------------------------------------------------|
|------------------------------------------------------|
|------------------------------------------------------|
|------------------------------------------------------|
|-----(12h 14p 12\10)-----10-----(10h 12p 10\9)-----9--|
|--0-------------------0------0------------------0-----|
  ...                 ...    ...                ...


 9 |_____3____| |___3__|  |__3__|  |__3__|
|-------------------------------------------|
|-------------------------------------------|
|-------------------------------------------|
|-------------------------------------------|
|-----(9h 10p 9\7)-----7-----------7-----7--|
|--0----------------0-----0--0--0-----0-----|
  ...              ...    .......    ...


10 |__3__|  |__3__|  |__3__|  |__3__|
|--------------------------------------| |
|--------------------------------------| |
|--------------------------------------|*|
|--------------------------------------|*|
|-----------7-----7-----------7-----7--| |
|--0--0--0-----0-----0--0--0-----0-----| |
   .......    ...    .......    ...



Guitar 1 plays the riff as written, but guitar 2 simply repeats bars 1 - 5 twice



On the first repeat the tempo during the last few bars gradually increases to 80
BPM



On the last repeat the tempo during the last few bars gradually increases to 84
BPM



================================================================================
Riff 6a: Guitar 1 (Play 4 times)
================================================================================


    |____3___|  |____3___|  |____3___|  |____3___|
||--------------------------------------------------|
||--------------------------------------------------|
||--------------------------------------------------|
||--12--12--12--12--12--12--11--11--11--11--11--11--|
||--10--10--10--10--10--10--9---9---9---9---9---9---|
||--0---0---0---0---0---0---0---0---0---0---0---0---|
    .............................................

   |__3__|  |__3__|  |__3__|  |__3__|     |__3__|  |__3__|  |__3___|  |__3__|
|--------------------------------------|---------------------------------------|
|--------------------------------------|---------------------------------------|
|--------------------------------------|---------------------------------------|
|--9--9--9--9--9--9--9--9--9--9--9--9--|--5--5--5--5--5--5--(5/7)--7--7--7--7--|
|--7--7--7--7--7--7--7--7--7--7--7--7--|--3--3--3--3--3--3--(3/5)--5--5--5--5--|
|--0--0--0--0--0--0--0--0--0--0--0--0--|--3--3--3--3--3--3--(3/5)--5--5--5--5--|
   ..................................        .............         ..........

   |__3___|  |__3__|  |__3__|  |__3__|
|---------------------------------------|
|---------------------------------------|
|---------------------------------------|
|--(7\2)--2--2--2--2--2--2--2--2--2--2--|
|--(5\2)--2--2--2--2--2--2--2--2--2--2--|
|--(5\0)--0--0--0--0--0--0--0--0--0--0--|
          ............................

   |__3__|  |__3______|   |___3____|
|-------------------------------------------| |
|-------------------------------------------| |
|-------------------------------------------|*|
|--2--2--2--2--2----------------------------|*|
|--2--2--2--2--2--(9/14)--14--14--12--14- \-| |
|--0--0--0--0--0--(7/12)--12--12--12--12- \-| |
   .............



================================================================================
Riff 6b: Guitar 2 (Play 4 times)
================================================================================


    |____3___|  |____3___|  |____3___|  |____3___|
||--------------------------------------------------|
||--------------------------------------------------|
||--------------------------------------------------|
||--12--12--12--12--12--12--11--11--11--11--11--11--|
||--10--10--10--10--10--10--9---9---9---9---9---9---|
||--0---0---0---0---0---0---0---0---0---0---0---0---|
    .............................................

   |__3__|  |__3__|  |__3__|  |___3__|     |__3__|  |__3__|  |__3__|  |__3__|
|---------------------------------------|--------------------------------------|
|---------------------------------------|--------------------------------------|
|---------------------------------------|--------------------------------------|
|--9--9--9--9--9--9--7------------------|--5--5--5--5--5--5--(5/7)-7--7--7--7--|
|--7--7--7--7--7--7--7--7--7--10--9--0--|--3--3--3--3--3--3--(3/5)-5--5--5--5--|
|--0--0--0--0--0--0--0--0--0--0---0--0--|--3--3--3--3--3--3--(3/5)-5--5--5--5--|
   .......                                    .............        ..........

   |__3___|  |__3__|  |__3__|  |__3__|
|---------------------------------------|
|---------------------------------------|
|---------------------------------------|
|--(7/9)--9--9--9--9--9--9--9--9--9--9--|
|--(5/7)--7--7--7--7--7--7--7--7--7--7--|
|--(5/7)--7--7--7--7--7--7--7--7--7--7--|
          ............................

   |__3__|  |__3___|  |___3____|
|---------------------------------------| |
|---------------------------------------| |
|---------------------------------------|*|
|--9--9--9--9--9------------------------|*|
|--7--7--7--7--7--14--14--14--12--14- \-| |
|--7--7--7--7--7--12--12--12--12--12- \-| |
   .............



================================================================================
Guitars 1 & 2 play Riff 5 once, beginning with the last two bars of the segue
================================================================================

================================================================================
Guitars 1 & 2 play Riff 6 4 times
================================================================================

================================================================================
Riff 7a: Guitar 1 (Play 4 times) [ Tempo = 64 BPM ]
================================================================================


* Allow chords to ring wherever possible *


||----------------------|--------------------|----------------------|
||----------------------|--------------------|----------------------|
||----------------------|--------------------|------------9---------|
||--12--------11--------|--9--------8--------|-------9----9------7--|
||--10--------9---------|--7--------6--------|--7----7--------------|
||--0---------0---------|--0--------0--------|--0-------------------|



|-------------------|---------------------|--------------------|
|-------------------|---------------------|--------------------|
|--9----------------|---------------------|-----------0--------|
|--7h9--------------|--10--------9--------|--7--------2--------|
|--7----------------|--7---------7--------|--7--------x--------|
|--0----------------|--8---------7--------|--5--------3--------|


   |__3__|                        |__3__|
|-------------------------|----------------------------| |
|-------------------------|----------------------------| |
|----------------0--------|-(0)------------------------|*|
|--4--5--4--2----2--------|-(2)------------------------|*|
|--5--5--5--3----3--------|-(3)---3--2--0--------------| |
|-------------------------|----------------3~~---2~~---| |
   ..........                     .......



During the subsequent repeats replacement bars are required for bars 3 and 4:



==================
First Replacement:
==================


|-----------------------|-------------------------|
|-----------------------|-------------------------|
|-----------------------|--9----9----9-9----------|
|-------9----9----9--7--|--7h9------9--------9----|
|--7----7----7----7--7--|--7----------------------|
|--0---------0----------|--0----------------------|



===================
Second Replacement:
===================


|-----------------------|-------------------|
|-----------------------|-------------------|
|-----------------------|-------------------|
|-------9----9----9--7--|--7h9--------------|
|--7----7----7----7--7--|--7----------------|
|--0---------0----------|--0----------------|



==================
Third Replacement:
==================


|-----------------------|-------------------------|
|-----------------------|-------------------------|
|-----------------------|-------9----9-9----------|
|-------9----9----9--7--|--7h9----9--------9------|
|--7----7----7----7--7--|--7----------------------|
|--0---------0----------|--0----------------------|



Guitar 2 plays the riff as written, but requires different replacement bars:



==================
First Replacement:
==================


|----------------------|-------------------|
|----------------------|-------------------|
|------------9---------|--9----------------|
|-------9----9------7--|--9----------------|
|--7----7--------------|--7----------------|
|--0-------------------|--0----------------|



===================
Second Replacement:
===================


|----------------------|-------------------|
|----------------------|-------------------|
|------------9---------|--9----------------|
|-------9----9------7--|--7h9--------------|
|--7----7--------------|--7----------------|
|--0-------------------|--0----------------|



==================
Third Replacement:
==================


|-----------------------|-------------------|
|-----------------------|-------------------|
|-----------------------|-------------------|
|-------9----9----9--7--|--7h9--------------|
|--7----7----7----7--7--|--7----------------|
|--0---------0----------|--0----------------|



The tempo of this riff increases gradually and steadily to 84 BPM, but during
the last 4 bars it gradually decreases again to 66 BPM



Both guitars end on the following:



||------------|-----------|-----------|------------||
||------------|-----------|-----------|------------||
||------------|-----------|-----------|------------||
||--2---------|-(2)-------|-(2)-------|--(2)-------||
||--2---------|-(2)-------|-(2)-------|--(2)-------||
||--0---------|-(0)-------|-(0)-------|--(0)-------||



================================================================================
End
================================================================================


Tab summary:        Intro x 1
                    Riff 1 x 4
                    Riff 2 x 1
                    Riff 3 x 2 + Lead Fill 1 x 1
                    Riff 4 x 4
                    Riff 3 x 2 + Lead Fill 2 x 1
                    Riff 4 x 4
                    Riff 5 x 2
                    Riff 6 x 4
                    Riff 5 x 1
                    Riff 6 x 4
                    Riff 7 x 4

                    END

  Visit MetalTabs.com for more metal tablature

bottom separator

Contact Us | Privacy Policy | Disclaimer | Legal Notice
Copyright © 2001-2014 MetalTabs.com. All Rights Reserved.