top separator

Home

Forum

What's New

Submit a Tab

FAQ

Links

Contact Us

Link to Us

MetalTabs.com logo

Bands

0-9

A

B

C

D

E

F

G

H

I

J

K

L

M

N

O

P

Q

R

S

T

U

V

W

X

Y

Z

Search

What

Where
 

Arghoslent - "Flogging The Cargo" Guitar Tab

Plain Text Version
More Arghoslent Tabs

Hits: 1391
Rated: 5.00 out of 5 (1 vote)
Updated: 2008-10-28 06:16:16

 

By:

Argamocrypt

sendpm.gif

email.gif

Important note
This tab is available online because we obtained explicit permission from Arghoslent or their label.


#----------------------------------PLEASE NOTE---------------------------------#
#This file is the author's own work and represents their interpretation of the #
#song. You may only use this file for private study, scholarship, or research. #
#Unless specified otherwise, this is NOT an official tab from the band members.#
#------------------------------------------------------------------------------#

  Visit MetalTabs.com for more metal tablature
  
Band:  Arghoslent
Album: Incorrigible Bigotry
Song:  Flogging the Cargo

Copyright (c)  Drakkar Productions 2002
Version 1.0 - 10/19/2008

Transcribed By: Zach Kraemer
Email:          Tiberian710@aol.com

www.arghoslent.cjb.net

.  - palm mute           /  - slide/whammy up
\  - slide/whammy down   ~  - vibrato
h  - hammer on           b  - Bend
p  - pull off            () - ghost/sustained note
<> - pinch harmonic

Tuning: DGCFAD

 Riff 1
|------------------------------------------------------------------|
|------------------------------------------------------------------|
|------------------------------------------------------------------|
|-2-3-5-7-77-5-10-1010-5-7-5-55-2-3-5-7-77-5-10-1010-5-7-5-3333333-|
|-0-1-3-5-55-3-8--8-8--3-5-3-33-0-1-3-5-55-3-8--8-8--3-5-1-1111111-|
|------------------------------------------------------------------|

Guitar Solo
|-------------------------------------------------------------|
|--------------------14h15--14--------17-17h18--15----15------|
|-<17b>~~~~-<15>\--------------15-14---------------17----17~~-|
|-------------------------------------------------------------|
|-------------------------------------------------------------|
|-------------------------------------------------------------|

|-----------------------------------------------------------------------------|
|-----------------------------------------------------------------------------|
|-10-12-10----10-14-10----10-12-10----10-14-10----10-12-10----10-14-10-10-----|
|----------12----------12----------12----------12----------12-------------12~-|
|-----------------------------------------------------------------------------|
|-----------------------------------------------------------------------------|

|----------------------------------------|
|----------------------------------------|
|-/7--10-7-------------------------------|
|----------10-7--7-8-7h8p7------7--------|
|--------------------------10-8---8-7----|
|-------------------------------------10-|

|------------------------------------------------------------------------------|
|------------------------------------------------------------------------------|
|----10----10----------------10-----------------10-------------10-10-----------|
|-12----12----12-10-10-12-14----14-12-10-12--14----14-12-10-12-------14-12-10/-|
|------------------------------------------------------------------------------|
|------------------------------------------------------------------------------|

|-----------------------------------------------------------------------------|
|-----------------------------------------------------------------------------|
|-----------------------------------------------------------------------------|
|-12-14-15-10/12-14-15-10/12-14-15-10/12-14-15-10/12-12-14-12\10-10-10-14-14--|
|-----------------------------------------------------------------------------|
|-----------------------------------------------------------------------------|

|-------------------------------------|
|-------------------------------------|
|-------------------------12-------12-|
|-12-10-10/12-12-14-15-14----15-15----|
|-------------------------------------|
|-------------------------------------|

|--------------------------------------------------------------|
|-15\-----------------------------w/bar------lift-&-dive-w/bar-|
|-14\---19br~~~---------------21\17\\\----[3]/-\\\\\\----------|
|--------------------------------------------------------------|
|-------------------dive w/bar---------------------------------|
|-----------------0/\\\\-////----------------------------------|

 Fill 1
|---------------------------|
|---------------------------|
|---------------------------|
|-7-5-3-2-----3-2-----------|
|-5-3-1-0-----1-0-5-3---5---|
|-----------------3-1---3---|

 Riff 2
|------------------------------------------------------------------|
|------------------------------------------------------------------|
|------------------------------------------------------------------|
|-------------------------5-------7----8-9----------10-7h10p7------|
|-3-----3----3--------------5h7---5----6-7-10-777-8-----------10p7-|
|-5-555-5--5-5-00-3-5-333-------5-5-55-6-7-------------------------|
pm  ...    .   ..     ...           ..        ..

 Fill 2
|------------------------------------------------------------------|
|------------------------------------------------------------------|
|------------------------------------------------------------------|
|---------------------------------7----8-9-------------------------|
|-3\------------------------------5----6-7-------------------------|
|-5\------------------------------5-55-6-7-------------------------|
pm                                  ..

 Riff 3
|--------------------------------------------------------|
|--------------------------------------------------------|
|-9------------------------------------------------------|
|-9-----------/10---9---7-----------------/9---7---------|
|-7--------10---------------/10--------10----------/10---|
|-----7-10--------0---0---0-------7-10-------0---0-----0-|

 Riff 4
|-------------------------------------------------------|
|-------------------------------------------------------|
|-------------/10---9---7----------------/9---7---------|
|-7~~------10---------------/10-------10----------/10---|
|-----7-10--------0---0---0------7-10-------0---0-----0-|
|-------------------------------------------------------|

 Fill 3
|--------------|
|--------------|
|-9------------|
|--------------|
|--------------|
|--------------|
|
|Fill 3a
|--------------|
|--------------|
|--------------|
|--------------|
|-0------------|
|--------------|

 Riff 5
|---------------------------------------------------------------|
|---------------------------------------------------------------|
|---------------------------------------------------------------|
|---------------------------------------------------------------|
|-00000000000000000000000000000000000000000000000000000000-3b---|
|---------------------------------------------------------------|

 Fill 4
|--------------------------------|
|--------------------------------|
|--------------------------------|
|-2---5-2---2-2-2---2-2-2--------|
|-0---3-0---0-0-0---0-0-0---3b---|
|--------------------------------|
pm.     .   . . .   . . .

 Riff 6
|-------------------|
|-------------------|
|-------------------|
|-------------------|
|-000000-7-6-0000-3-|
|-------------------|
pm......     ....

 Riff 7
|-------------------------|
|-------------------------|
|-------------------------|
|-------------------------|
|-0-0-7-0-6-0-0-0-5-0-3-0-|
|-------------------------|
pm. . . . . . . . . . . .


Structure
Riff 1 x5  - Guitar Solo begins halfway through first time.
Fill 1 x1
Riff 2 x1 w/Fill 2
Riff 2 x3
Riff 3 x1
Riff 2 x4
Riff 3 x1
Riff 4 x1
Riff 3 x1
Riff 4 x1
Fills 3 & 3a x1
Riff 5 x1
Riff 6 x4 w/Fill 4
Riff 6 x12
Riff 7 x4
Riff 6 x8
Riff 7 x4
Riff 6 x8
Riff 7 x4
Riff 1 x5
Fill 1 x1

  Visit MetalTabs.com for more metal tablature

bottom separator

Contact Us | Privacy Policy | Disclaimer | Legal Notice
Copyright © 2001-2014 MetalTabs.com. All Rights Reserved.